Kutless - We Fall Down Chords & Tabs

 

We Fall Down Chords & Tabs

Kutless Chords & Tabs

Version: 2 Type: Tab 0 ratings
1 star 2 stars 3 stars 4 stars 5 stars
comments

We Fall Down Tab

Song: We Fall Down
Band: Kutless
Tuning: Standard
Tabbed By: onecoolsquirrel2

Intro:

e|---1---4---2---|
B|-2---2---2---2-|
G|---------------|
D|---------------|
A|---------------|
E|---------------|

e|-1---1------1---|-2---1---4---2----| 
B|---2---2--4---2-|---2---2---2---2--|
G|----------------|------------------|   x 3
D|----------------|------------------|
A|----------------|------------------|
E|----------------|------------------|

For the first part of the intro, the second guitar comes in 
e|----------------|------------------| 
B|----------------|------------------|
G|-4--------------|-6----------------|  
D|-4-x3--4--------|-6-x8-------------|  Dist.
A|-2-----4-x3-----|-4----------------|
E|-------2--------|------------------|


Verse 1 (clean)
e|----------------|------------------| 
B|----------------|------------------|
G|-6--------------|-4----------------|  
D|-6--6--4--------|-4----6-----------| I dont know the strumming here, but you'll figure it out easily
A|-4--6--4--------|-2----6-----------|
E|----4--2--------|------4-----------|

Chorus
e|----------------|------------------| 
B|----------------|------------------|
G|-4--------------|-6----------------|  
D|-4-x3--4--------|-6-x8-------------|  Dist.
A|-2-----4-x3-----|-4----------------|
E|-------2--------|------------------|

Verse 2
e|----------------|------------------| 
B|----------------|------------------|
G|-6--------------|-4----------------|  
D|-6--6--4--------|-4----6-----------| 
A|-4--6--4--------|-2----6-----------|
E|----4--2--------|------4-----------|


[ Tab from: http://www.guitartabs.cc/tabs/k/kutless/we_fall_down_tab_ver_2.html ]
Chorus
e|----------------|------------------| 
B|----------------|------------------|
G|-4--------------|-6----------------|  
D|-4-x3--4--------|-6-x8-------------|  Dist.
A|-2-----4-x3-----|-4----------------|
E|-------2--------|------------------|

Solo
 

e|---1---4---2---|
B|-2---2---2---2-|
G|---------------|
D|---------------|
A|---------------|
E|---------------|

e|-1---1------1---|-2---1---4---2----| 
B|---2---2--4---2-|---2---2---2---2--|
G|----------------|------------------|
D|----------------|------------------|   
A|----------------|------------------|
E|----------------|------------------|

e|-1b(2)r--------------------------------|
B|--------2-2--------2-------------------|
G|--------------3--3---3~-----1~---------|
D|---------------------------------------|
A|---------------------------------------|
E|---------------------------------------|

e|-1b(2)r-----------1-4--9--8--6--4--2--|-1~~------|
B|--------2-2----2-2-2-2----------------|----------|
G|--------------3-----------------------|----------|
D|--------------------------------------|----------|
A|--------------------------------------|----------|
E|--------------------------------------|----------|

Chorus (clean)

e|----------------|------------------| 
B|----------------|------------------|
G|-4--------------|-6----------------|  
D|-4-x3--4--------|-6-x8-------------|  
A|-2-----4-x3-----|-4----------------|
E|-------2--------|------------------|

Play through the chorus a few more times but with distortion

Theres your song. Live for Jesus because he died for you.
Any questions? E-Mail me at Steve4991@msn.com
Comments