Kutless - We Fall Down Chords & Tabs

 

We Fall Down Chords & Tabs

Kutless Chords & Tabs

Version: 1 Type: Tab 0 ratings
1 star 2 stars 3 stars 4 stars 5 stars
comments

We Fall Down Tab

Kutless
"We Fall Down"
Strong Tower

This is an awesome song written by Kutless.
My praise band wants to play this song, so I 
figured out the tab for the lead on the intro
and the solo in this song. Please enjoy

tab by: leavenodoubt43
e-mail: aramolson@yahoo.com    

Normal Tuning:


~ = vibrato
h = hammer on
p = pull off
b(n) = bend (n is the fret you bend it to)
r = return from bend

Intro:

e|---1---4---2---|
B|-2---2---2---2-|
G|---------------|
D|---------------|
A|---------------|
E|---------------|

e|-1---1------1---|-2---1---4---2----| 
B|---2---2--4---2-|---2---2---2---2--|
G|----------------|------------------|   x 3
D|----------------|------------------|
A|----------------|------------------|
E|----------------|------------------|

Verse 1

Chorus

Verse 2 

Chorus 

SOLO: 
(The first part plays through the intro part - the only exception is that 
 you don't repeat the 2nd part three times. Just play it once, then play 
 the part that follows.) 
[ Tab from: http://www.guitartabs.cc/tabs/k/kutless/we_fall_down_tab.html ]
e|---1---4---2---|
B|-2---2---2---2-|
G|---------------|
D|---------------|
A|---------------|
E|---------------|

e|-1---1------1---|-2---1---4---2----| 
B|---2---2--4---2-|---2---2---2---2--|
G|----------------|------------------|
D|----------------|------------------|   
A|----------------|------------------|
E|----------------|------------------|

e|-1b(2)r--------------------------------|
B|--------2-2--------2-------------------|
G|--------------3--3---3~-----1~---------|
D|---------------------------------------|
A|---------------------------------------|
E|---------------------------------------|

e|-1b(2)r-----------1-4--9--8--6--4--2--|-1~~------|
B|--------2-2----2-2-2-2----------------|----------|
G|--------------3-----------------------|----------|
D|--------------------------------------|----------|
A|--------------------------------------|----------|
E|--------------------------------------|----------|

That's it. It's pretty easy once you get the fingering down. 

If you have any comments or questions e-mail me at armolson@yahoo.com

God Bless!
Comments