Kutless - Tonight Chords & Tabs

 

Tonight Chords & Tabs

Kutless Chords & Tabs

Version: 3 Type: Tab 0 ratings
1 star 2 stars 3 stars 4 stars 5 stars
comments

Tonight Tab

   
----------------------------------------------------------------------------
			     Tonight - Kutless
----------------------------------------------------------------------------
Tabbed by: Max Andersen
Email: deckrider@hotmail.com
Key
| /  slide up
| \  slide down
| p  pull off
| h  hammer-on
| x  Mute note
| .  palm mute
Tuning: Drop-D both gtrs.

Intro:

riff 1 gtr.2
e|----------------------------------------------------------------------|
B|----------------------------------------------------------------------|
G|----------------------------------------------------------------------|
D|----------------------------------------------------------------------|
A|---5---5/6---5\4---4/5---5---5/6---5\4---4/5---5---5/6---6/8---8---5--|
D|-0---0-----0-----0-----0---0-----0-----0-----0---0-----0-----0---0----|

riff 2 gtr.1
e|--------------------------------------------------|
B|--------------------------------------------------|
G|--------------------------------------------------|
D|-0-0-0-3-3-3-3/8-8-8-8--0-0-0-3-3-3-3/11-11-11-11-|
A|-0-0-0-3-3-3-3/8-8-8-8--0-0-0-3-3-3-3/11-11-11-11-|
D|-0-0-0-3-3-3-3/8-8-8-8--0-0-0-3-3-3-3/11-11-11-11-|

cont.
e|------------------------------------|
B|------------------------------------|
G|------------------------------------|
D|-0-0-0-3-3-3-3/8-8-8-8-0--3-2-0-2-0-|
A|-0-0-0-3-3-3-3/8-8-8-8-0--3-2-0-2-0-|
D|-0-0-0-3-3-3-3/8-8-8-8-0--3-2-0-2-0-|
                            . . . . 

Verse 1:

riff 1 gtr.2
e|---------------------------------------------------------------------|
B|---------------------------------------------------------------------|
G|---------------------------------------------------------------------|
D|---------------------------------------------------------------------|
A|---5---5/6---5\4---4/5---5---5/6---5\4---4/5---5---5/6---6/8---8---5-|
D|-0---0-----0-----0-----0---0-----0-----0-----0---0-----0-----0---0---|

riff 3 gtr.2
e|----------------------------------------------------------------|
B|----------------------------------------------------------------|
G|----------------------------------------------------------------|
D|----------------------------------------------------------------|
A|----5/6---5\4---4/5---5---5/6---5\4---4/5---5---5/6---5/4---4/5-|
D|--0-----0-----0-----0---0-----0-----0-----0---0-----0-----0-----|

gtr. 1
e|----------------------------------------------------------------|
B|----------------------------------------------------------------|
G|----------------------------------------------------------------|
D|--------------------0-0-------------------0-0-------------------|
A|--------------------0-0-------------------0-0-------------------|
D|--------------------0-0-------------------0-0-------------------|
                      . .                   . .

cont. gtr.2
e|--------------------------|
B|--------------------------|
G|--------------------------|
D|--------------------------|
A|---5---5/6---6\8---8---5--|
D|-0---0-----0-----0---0----|

gtr.1
e|-------------------------|
B|-------------------------|
G|-------------------------|
D|-0-0-----------------0-0-|
A|-0-0-----------------0-0-|
D|-0-0-----------------0-0-|
   . .                 . .

Chorus:

riff 2
e|--------------------------------------------------|
B|--------------------------------------------------|
G|--------------------------------------------------|
D|-0-0-0-3-3-3-3/8-8-8-8--0-0-0-3-3-3-3/11-11-11-11-|
A|-0-0-0-3-3-3-3/8-8-8-8--0-0-0-3-3-3-3/11-11-11-11-|
D|-0-0-0-3-3-3-3/8-8-8-8--0-0-0-3-3-3-3/11-11-11-11-|

cont.                                  fill
e|------------------------------------|------|
B|------------------------------------|------|
G|------------------------------------|------|
D|-0-0-0-3-3-3-3/8-8-8-8-0--3-2-0-2-0-|-3x-3-| x2(omit the fill second time)
A|-0-0-0-3-3-3-3/8-8-8-8-0--3-2-0-2-0-|-3x-3-|
D|-0-0-0-3-3-3-3/8-8-8-8-0--3-2-0-2-0-|-3x-3-|
                            . . . . 

Verse 2:

riff 3
e|-------------------------------------------|
B|-------------------------------------------|
G|-------------------------------------------|
D|-------------------------------------------| x2
A|---5---5/6---5\4---4/5---5---5/6---6\8---8-|
D|-0---0-----0-----0-----0---0-----0-----0---|

riff 1 gtr.2
e|-----------------------------------------------------------------------|
B|-----------------------------------------------------------------------|
G|-----------------------------------------------------------------------|
D|-----------------------------------------------------------------------|
A|---5---5/6---5\4---4/5---5---5/6---5\4---4/5---5---5/6---5\4---4/5---5-|
D|-0---0-----0-----0-----0---0-----0-----0-----0---0-----0-----0-----0---|
[ Tab from: http://www.guitartabs.cc/tabs/k/kutless/tonight_tab_ver_3.html ]
gtr.1
e|-----------------------------------------------------------------------|
B|-----------------------------------------------------------------------|
G|-----------------------------------------------------------------------|
D|-0-0-------------------0-0-------------------0-0-------------------0-0-|
A|-0-0-------------------0-0-------------------0-0-------------------0-0-|
D|-0-0-------------------0-0-------------------0-0-------------------0-0-|
                         . .                   . .                   . .
riff 4 gtr.2
e|-----------------------------------------------------------------------|
B|-----------------------------------------------------------------------|
G|-----------------------------------------------------------------------|
D|-----------------------------------------------------------------------|
A|---5---5/6---5\4---4/5---5---5/6---5\4---4/5---5---5/6---5\4---4/5---5-|
D|-0---0-----0-----0-----0---0-----0-----0-----0---0-----0-----0-----0---|

gtr.1
e|-------|---------------------------------|
B|-------|---------------------------------|
G|-------|---------------------------------|
D|-3-2-3-|-0-0-0-0-0-0-0-0-0-0-0-0-0-0-0-0-|x3 (*,don't mute on last repeat)
A|-3-2-3-|-0-0-0-0-0-0-0-0-0-0-0-0-0-0-0-0-|
D|-3-2-3-|-0-0-0-0-0-0-0-0-0-0-0-0-0-0-0-0-|
          (.*.). . . . . . . . . . . . . .

cont.
e|---------------------------------|
B|---------------------------------|
G|---------------------------------|
D|-0-0-0-0-0-0-0-0-0-0-0-0-3-3-2-3-|
A|-0-0-0-0-0-0-0-0-0-0-0-0-3-3-3-3-|
D|-0-0-0-0-0-0-0-0-0-0-0-0-3-3-2-3-|
       . . . . . . . . . . 

Play chorus

Interlude:

riff 5 gtr.2
e|----------------------------------------------------------------|
B|----------------------------------------------------------------|
G|----------------------------------------------------------------|
D|----------------------------------------------------------------|
A|---9---9---9---9/10---10---10---10---10h12---12---13\12---12p10-|
D|-0---0---0---0------0----0----0----0-------0----0-------0-------|

cont.
e|---------------------------------------|
B|---------------------------------------|
G|---------------------------------------|
D|---------------------------------------|
A|---10h12---12---13\12---12p10---10h12--|
D|-0-------0----0-------0-------0--------|

riff 6 gtr.2
e|---------------------------------------------------------------------|
B|---------------------------------------------------------------------|
G|-11-11-11-11-11-11-11-11-11-11/12-12-12-12-12-12-12-12-12-12-12-14---|
D|-x--x--x--x--x--x--x--x--x--x-/x--x--x--x--x--x--x--x--x--x--x--x----|
A|-9--9--9--9--9--9--9--9--9--9-/10-10-10-10-10-10-10-10-10-10-10/12---|
D|---------------------------------------------------------------------|
   .  .     .  .     .     .        .  .     .  .     .     .  

gtr 1
e|---------------------------------------------------------------------|
B|---------------------------------------------------------------------|
G|---------------------------------------------------------------------|
D|-0--0--0--0--0--0--0--0--0--0h3---3--3--3--3--3--3--3--3--3--3/7-----|
A|-0--0--0--0--0--0--0--0--0--0h3---3--3--3--3--3--3--3--3--3--3/7-----|
D|-0--0--0--0--0--0--0--0--0--0h3---3--3--3--3--3--3--3--3--3--3/7-----|
   .  .     .  .     .     .        .  .     .  .     .     .     

cont. gtr.2
e|----------------------------------------|
B|----------------------------------------|
G|-12-12-12-12-12-13\12-12-12\10-10-10/12-|
D|-12-12-12-12-12-13\12-12-12\10-10-10/12-|
A|-12-12-12-12-12-13\12-12-12\10-10-10/12-|
D|----------------------------------------|
   .  .     .  .        .         .       

gtr.1
e|----------------------------------------|
B|----------------------------------------|
G|----------------------------------------|
D|-7--7--7--7--7--7-----7--7-----7--7-----|
A|-7--7--7--7--7--7-----7--7-----7--7-----|
D|-7--7--7--7--7--7-----7--7-----7--7-----|
   .  .     .  .        .        .          

first ending gtr.2
e|---------------------------------------|
B|---------------------------------------|
G|12-12-12-12-12-13\12-12-12\10-10-10/12-|
D|12-12-12-12-12-13\12-12-12\10-10-10/12-|
A|12-12-12-12-12-13\12-12-12\10-10-10/12-|
D|---------------------------------------|
  .   .    .  .        .        .     

gtr.1
e|---------------------------------------|
B|---------------------------------------|
G|---------------------------------------|
D|0--0--0--0--0--0-----0--0-----0--0-----|
A|0--0--0--0--0--0-----0--0-----0--0-----|
D|0--0--0--0--0--0-----0--0-----0--0-----|
  .  .     .  .        .        . 
second ending both gtrs.
e|----------------------|
b|----------------------|
G|----------------------|
D|-0--3-2-0-2-0---3x-3--|
A|-0--3-2-0-2-0---3x-3--|
D|-0--3-2-0-2-0---3x-3--|

Outro:

Play chorus

Modified fill (listen to cd for info)
e|---------|
B|---------|
G|---------|
D|-3x-2x-3-|
A|-3x-2x-3-|
D|-3x-2x-3-|

e|------------|
b|------------|
G|------------|
D|--3-2-0-2-0-|
A|--3-2-0-2-0-|
D|--3-2-0-2-0-|
    . . . .

Thats all enjoy!!!!!!!
============================================================================
Comments