Kutless - Tonight Chords & Tabs

 

Tonight Chords & Tabs

Kutless Chords & Tabs

Version: 2 Type: Tab 0 ratings
1 star 2 stars 3 stars 4 stars 5 stars
comments

Tonight Tab

   
-----------------------------------------------------------------------
			     Tonight - Kutless
-----------------------------------------------------------------------
Tabbed by: Jofus_San
Email: Majin_vegeta3001@hotmail.com

Tuning: Drop D (DADGBe)
   Intro
e|--------------------------------------------------------------------|
B|--------------------------------------------------------------------|
G|--------------------------------------------------------------------|
D|---0--------------------0----------------------0------------------0-|  
A|-----5h6---5h4---4h5-----5h6---5h4---4h5-------5h6---7h8---9h10-----|
D|-0--------------------0----------------------0------------------0---|
[ Tab from: http://www.guitartabs.cc/tabs/k/kutless/tonight_tab_ver_2.html ]
e|-----------------------|--------------------------------------------|
B|-----------------------|--------------------------------------------|
G|-----------------------|--------------------------------------------|
D|-0--0-----333--9999----|--5---3333-0--------------------------------|
A|-0--0-----333--9999----|--5---3333-0--------------------------------|
D|-0--0-----333--9999----|--5---3333-0--------------------------------|
  (repeat 3x)             then...
    
    Verse
e|--------------------------------------------------------------------|
B|--------------------------------------------------------------------|
G|--------------------------------------------------------------------|
D|---0--------------------0--------------------0--------------------0-|  
A|-----5h6---5h4---4h5------5h6---5h4---4h5------5h6---7h8---9h10-----|
D|-0--------------------0--------------------0--------------------0---|
   (repeat 3x)
     
      Chorus
e|-----------------------|--------------------------------------------|
B|-----------------------|--------------------------------------------|
G|-----------------------|--------------------------------------------|
D|-0--0-----333--9999----|--5---3333-0--------------------------------|
A|-0--0-----333--9999----|--5---3333-0--------------------------------|
D|-0--0-----333--9999----|--5---3333-0--------------------------------|
  (repeat 3x)             then...     
                 (repeat the whole thing 2x)


| h  hammer-on

its accurate for the most part...I think the end of the chours is off a bit though...
PM me any changes you may have
=======================================================================
Comments