Kutless - Take Me In Chords & Tabs

 

Take Me In Chords & Tabs

Kutless Chords & Tabs

Version: 2 Type: Tab

Take Me In Tab

-------------------------------------------------------------------------------
			     Take me in - =Kutless
-------------------------------------------------------------------------------
Tabbed by:Lesley
Email:anticonformity84@aol.com

Tuning:drop d

e|----------------------------------------------------------------------------|
B|----------------------------------------------------------------------------|
G|----------------------------------------------------------------------------|
D|-------7-----764------------------2/4-----4-----------1---1-----------------|
A|----4-------------4-----4-----0--------------0-----2---------2-----2--------|
E|-4--------4----------4-----0-----------0--------2---------------2-----------|
[ Tab from: http://www.guitartabs.cc/tabs/k/kutless/take_me_in_tab_ver_2.html ]
e|---------------------------------------------------------------------------|
B|---------------------------------------------------------------------------|
G|---------------------------------------------------------------------------|
D|--4444442------------------------------------------------------------------|
A|---------------------------------------------------------------------------|
E|---------------------------------------------------------------------------|
second guitar
e|---------------------------------------------------------------------------|
B|------------5/7------------------------------------------------------------|
G|--------6------------------------------------------------------------------|
D|---------------------------------------------------------------------------|
A|---------------------------------------------------------------------------|
E|---------------------------------------------------------------------------|

 /  slide up

===============================================================================
I'm pretty sure this is right. you have to find where the second guitar comes in by 
to the song. Not hard at all. Jesus loves all of you!
2 Peter 3:9 NIV