Kutless - Saved Chords & Tabs

 

Saved Chords & Tabs

Kutless Chords & Tabs

Version: 1 Type: Tab 0 ratings
1 star 2 stars 3 stars 4 stars 5 stars
comments

Saved Tab

   
Band:Kutless
Album:Kutless
Song:Saved
Tabbed by:William Soans (snoopdog778@hotmail.com)

This song has a really good tune to it
Check it out..........
Tuning:Standard (E A D G B E)

Intro And Verse.
Guiter clean
e------------------------------|
b--3-------6-----8------6------|
g--3-------6----8------6-------|
d---3-------8----10-----8------|
a----3------6-----8-------6----|
e--3------6-----8------6-------|

Prechorus
Guitar Distortion
e------------------------------|
b------------------------------|
g------------------------------|
d--5--------3----------8-------|
a----5----------3---------8----|
e---3---------1---------6------|
[ Tab from: http://www.guitartabs.cc/tabs/k/kutless/saved_tab.html ]
e------------------------------|
b------------------------------|
g------------------------------|
d--5----------3----------10----|
a---5-----------3------10------|
e-3---------1--------------8---|

Chorus
Guitar distortion
e------------------------------|
b------------------------------|
g------------------------------|
d----5------8---------3--------|
a------5------8----3-----------|
e--3---------6-------1---------|

i could'nt get the bridge cause the guitarist goes ballistic man but if anyone
figures out the bridge mail it to me.

Order of the song
intro      = once
verse      = twice
pre-chorus = once ----------------------|
chorus     = twice                      |
intro      = once                       |------ (rest of the song is
verse      = twice                      |         distortion)
pre-chorus = once                       |
verse      = three times                |
bridge     = which i don't know myself  |
chorus     = seven times----------------|

if there are any mistakes fell free to change it.........
GOD BLESS!!!!!!!
Comments