Kutless - Run Chords & Tabs

 

Run Chords & Tabs

Kutless Chords & Tabs

Version: 1 Type: Bass Tab 0 ratings
1 star 2 stars 3 stars 4 stars 5 stars
comments

Run Bass Tab

Run by Kutless
Standard Tuning

 (0:18)                  x3
G|-------------------------|------------------------------|
D|---------7-5-------------|----------7-5-----------------|
A|---3-5--5----------3-5---|----3-5--5----------3-5--5-5--|
E|-0--------------0--------|--0--------------0------------|
  
G|-----------------------------------|
D|-------------5\--------------------|
A|-3-3----5--5-------3-3----5--5-5---|
E|----5-3---------------5-3----------|
  
G|-----------------------------------|
D|-------------5\--------------------|
A|-3-3----5--5-------3-3----5--------|
E|----5-3---------------5-3----------|

   (1:35)                 x3
G|-------------------------|------------------------------|
D|---------7-5-------------|----------7-5-----------------|
A|---3-5--5----------3-5---|----3-5--5----------3-5--5-5--|
E|-0--------------0--------|--0--------------0------------|
[ Tab from: http://www.guitartabs.cc/tabs/k/kutless/run_btab.html ]
   (2:27)
G|------------------------------------|
D|-------------5\---------------------|
A|-3-3----5--5-------3-3----5--5-5----|
E|----5-3---------------5-3-----------|
   
G|------------------------------------|
D|-------------5\---------------------|
A|-3-3----5--5-------3-3----5---------|
E|----5-3---------------5-3-----------|
 
G|------------------------------------|
D|------------------------------------|
A|--------3-------------5-------------|
E|--5\-0----3----5\-0-----------------|
                         
G|------------------------------------|
D|----------------------------------7-|  x2
A|--------2--0-2-3--3-0-2--------5----|
E|-5--3-5------------------5--0-------|
                        
G|------------------------------------|
D|-------------5\---------------------|  x2
A|-3-3----5--5-------3-3----5---------|
E|----5-3---------------5-3-----------|

   (3:59)         x2              
G|-----------------|------------------|
D|-------------5\--|-----------7---5\-|
A|-3-3----5--5-----|--3-3----5---5----|
E|----5-3----------|-----5-3----------|
                  x3             
G|-----------------|------------------|
D|-------------5\--|------------------|
A|-3-3----5--5-----|--3-------5-------|
E|----5-3----------|-----3-3\---------|

Thanks, please rate it after you learn it.
_TheBassist01_
Comments