Kutless - Pride Away Chords & Tabs

 

Pride Away Chords & Tabs

Kutless Chords & Tabs

Version: 1 Type: Tab 0 ratings
1 star 2 stars 3 stars 4 stars 5 stars
comments

Pride Away Tab

   
	    Song-Pride Away
  Artist-Kutless
  Tabbed by-Tyler Smith
  Tuning-Dropped d
  Key
  *=palm mute ^=harmonic
  Intro 1-played by a bass, but if you are playing this
  song, and you want to play the bass part do this.
  Also verse 2
  e--------------------------------------------
  b-                   x2
  g--------------------------------------------
  d-7-7-7--7-7--5-5-5--5-5--3-3-3--3-3--5-5-5--
  a-7-7-7--7-7--5-5-5--5-5--3-3-3--3-3--5-5-5--
  d-7-7-7--7-7--5-5-5--5-5--3-3-3--3-3--5-5-5--
    * * *  * *  * * *  * *  * * *  * *  * * *
=======================================================
  Intro 2\ pre chorus
  e- listen to the song for exact timing
  b-  x2
  g---------------------------
  d--7--5--5--3-----3-----3---
  a--5--3--5--3-----3-----3---
  d--0-----5--3-0-0-3-0-0-3-00
                * *   * *   **
=======================================================
 
  Chorus
  e-                            | this part
  b-                            |  x2
  g-----7-7-9-9-9-----7-7-9-9-9-|----7-7-9-9-9
  d-7-7-----------3-3-----------|5-5----------
  a-7-7-5-5-7-7-7-3-3-5-5-7-7-7-|5-5-5-5-7-7-7
  d-7-7-----------3-3-----------|5-5----------
=======================================================
  Verse
=======================================================
  Pre Chorus
=======================================================
  Chorus
=======================================================
  Bridge is the same thing as the verse just less picks
=======================================================
  Rap same as chorus
=======================================================
  Rap part 2 I'll space it out to make it easier!
=======================================================
  e-
  b-10--10/11----10----10-8---
  g---------------------------
  d-7-7-7-7/8-8-8-7-7-7-7\5---
  a-7-7-7-7/8-8-8-7-7-7-7\5---
  d-7-7-7-7/8-8-8-7-7-7-7\5---
      * *     * *   * *

  e----------------------------
  b-10--10/11----10----10-6-6--
  g----------------------------
  d-7-7-7-7/8-8-8-7-7-7-7\3-3--
  a-7-7-7-7/8-8-8-7-7-7-7\3-3--
  d-7-7-7-7/8-8-8-7-7-7-7\3-3--
      * *     * *   * * 
======================================================
  Chorus
======================================================
  Outro- Same as rap 2 That's all, Tyler.
======================================================
[ Tab from: http://www.guitartabs.cc/tabs/k/kutless/pride_away_tab.html ]
Comments