Kutless - Passion Chords & Tabs

 

Passion Chords & Tabs

Kutless Chords & Tabs

Version: 1 Type: Tab 0 ratings
1 star 2 stars 3 stars 4 stars 5 stars
comments

Passion Tab

----------------------------------------------------------------------------
			     Passion - Kutless
----------------------------------------------------------------------------
Tabbed by: Max Andersen
Email: deckrider@hotmail.com
Comments: This a very easy song to play. It was too hard to here the second part in the
verse, so I didn't bother. If anyone wants it e,mail me and I'll try to figure it out
Key:
| /  slide up
| \  slide down
| x  Mute note
Tuning: Drop-Db
[ Tab from: http://www.guitartabs.cc/tabs/k/kutless/passion_tab.html ]
riff 1
eb|------------------------------------------------------------------|
Bb|--------0---0------------0---0------------0---0-----------0---0---|
Gb|------0---0------------0---0------------9---9-----------9---9-----|
Db|---10---------------10---------------10--------------10-----------|
Ab|-8------------8--10------------10--0------------0--0------------0-|
Db|------------------------------------------------------------------|

riff 2
eb|---------------------------|
Bb|---------------------------|
Gb|---------------------------|
Db|-7-7--0-0-0--3-3--5-5-5-5/-|
Ab|-7-7--0-0-0--3-3--5-5-5-5/-|
Db|-7-7--0-0-0--3-3--5-5-5-5/-|

riff 3
eb|-----------------------------------------------------------------|
Bb|-----------------------------------------------------------------|
Gb|-----------------------------------------------------------------|
Db|-0--0-0-3--3-3/10-10--10-10-5--5-5-0--0-0-3--3-3/10-10--10-10\x--|
Ab|-0--0-0-3--3-3/10-10--10-10-5--5-5-0--0-0-3--3-3/10-10--10-10\x--|
Db|-0--0-0-3--3-3/10-10--10-10-5--5-5-0--0-0-3--3-3/10-10--10-10\x--|

Intro/bridge:
riff 1 
Verse 1&2:
riff 1 x3
Chorus:
riff 2 x2
repeat
Interlude:
riff 3
Outro:
Play chorus a bunch of times

Thats All
============================================================================
Comments