Kutless - Passion Chords & Tabs

 

Passion Chords & Tabs

Kutless Chords & Tabs

Version: 1 Type: Bass Tab 0 ratings
1 star 2 stars 3 stars 4 stars 5 stars
comments

Passion Bass Tab

   
Passion by Kutless
Tuning, C#,A,D,G

(0:12)              
 G|-------------------|    |------------|
 D|-------------------| x2 |------------|
 A|-------------------|    |---------4--|
C#|--3--5--7--77-9-7-5|    |--3--5------|

 G|--------------|
 D|--------------| x2
 A|--------------|
C#|--7--0--3--5--|
[ Tab from: http://www.guitartabs.cc/tabs/k/kutless/passion_btab.html ]
 G|-------------------------------|    |------------------------------|
 D|------------------8-6----------| x3 |------------------------------|
 A|-------------------------------|    |------------------------------|
C#|--33-3--55-5--77------77--9-7-5|    |--33-3--55-5--00--7---00--7---|
       
 G|--------------|
 D|--------------|  x2
 A|--------------|
C#|--7--0--3--5--|
          
 G|--------------|
 D|--------------|  x2
 A|--------2-----|
C#|--0--3-----5--|

 G|--------------|    |-----------------|-----------------||
 D|--------------| x2 |-----------------|-----------------||
 A|--------------|    |--------------4--|-----------------||
C#|--7--0--3--5--|    |--7--0--3--5----5|-7--0--3--5--7---||

Thanks, please rate it after you learn it.
_TheBassist01_
Comments