Kutless - Jesus Lord Of Heaven Chords & Tabs

 

Jesus Lord Of Heaven Chords & Tabs

Kutless Chords & Tabs

Version: 2 Type: Tab

Jesus Lord Of Heaven Tab

By:  Gary(garyhale@spu.edu)

~ - let ring out

GUITAR 1'S PARTS:
-----------------
Intro:
e|-----0-------0-------0------0-------0-------0-----0-------0-------0--------|
B|-------1-------1--------------1-------1-------------1-------1--------------|
G|---------0-0-----0-0------------0-0-----0-0-----------0-0-----0-0----------|
D|---------------------------------------------------------------------------|
A|-3-3--------------------2-2-------------------0-0--------------------------|
E|---------------------------------------------------------------------------|
[ Tab from: http://www.guitartabs.cc/tabs/k/kutless/jesus_lord_of_heaven_tab_ver_2.html ]
Intro Cont'd:
e|-----0-------0-------0-----------------------------------------------------|
B|-------1-------1-----------------------------------------------------------|
G|---------2-2-----2-2-------------------------------------------------------|
D|-3-3-----------------------------------------------------------------------|
A|---------------------------------------------------------------------------|
E|---------------------------------------------------------------------------|

GUITAR 2'S PARTS:
-----------------
Intro:
e|---------7~---------------12~-----------7~------------------8--------------|
B|-------8-----8~---------8-------------8-----8~---------8-10---10~----------|
G|-----9----------------9-------------9----------------9---------------------|
D|--10---------------10------------10---------------10-----------------------|
A|---------------------------------------------------------------------------|
E|---------------------------------------------------------------------------|