Kutless - Jesus Lord Of Heaven Chords & Tabs

 

Jesus Lord Of Heaven Chords & Tabs

Kutless Chords & Tabs

Version: 1 Type: Tab

Jesus Lord Of Heaven Tab

   
-----------------------------------------------------------------------------                   
Jesus Lord Of Heaven - Kutless
-----------------------------------------------------------------------------
Tabbed by: Max Andersen
Email: metalhead_7075@yahoo.ca

Tuning: Regular E

riff 1
e|------0-------0-------0-----0-------0-------0-----0-------0-------0-|
B|--------1-------1-------------1-------1-------------1-------1-------|
G|o---------0-0-----0-0-----------0-0-----0-0-----------0-0-----0-0---|
D|o-------------------------------------------------------------------|
A|--3-3-------------------2-2-------------------0-0-------------------|
E|--------------------------------------------------------------------|

e|-----0-------0-------0--|
B|-------1-------1--------|
G|---------2-2-----2-2---o|
D|-3-3-------------------o|
A|------------------------|
E|------------------------|
[ Tab from: http://www.guitartabs.cc/tabs/k/kutless/jesus_lord_of_heaven_tab.html ]
riff 2         end. 1           end. 2
e|-------7----|----------------|-----------5-8-5--|
B|---5-8----8-|-5-----5-8-5----|-5-----5-8--------|
G|-5----------|-----5--------7-|-----5------------|
D|------------|----------------|------------------|
A|------------|----------------|------------------|                          
E|------------|----------------|------------------|

riff 3
e|--------------------------------------------------------------------|
B|--------------------------------------------------------------------|
G|-5-5-5-5-5-5-5-5-------------------------------------------------5--|
D|-5-5-5-5-5-5-5-5-5-5-5-5-5-5-5-5-7-7-7-7-7-7-7-7-3-3-3-3-3-3-3-3-5--|
A|-3-3-3-3-3-3-3-3-5-5-5-5-5-5-5-5-7-7-7-7-7-7-7-7-3-3-3-3-3-3-3-3-3--|
E|-----------------3-3-3-3-3-3-3-3-5-5-5-5-5-5-5-5-1-1-1-1-1-1-1-1----|

riff 4
e|----------------------------------|
B|-------------------------1--------|
G|-----2-------0-------0h2-----0----|
D|---2---2---0---0---3-------0---0--|
A|-0---------------3----------------|
E|---------3------------------------|

riff 5
e|---------------------------|
B|-----------------------1---|
G|-----2-------0-------0-----|
D|---2---2---0---0---3-------|
A|-0---------------3---------|
E|---------3-----------------|

| /  slide up
| \  slide down
| h  hammer-on
| p  pull-off
| ~  vibrato
| +  harmonic
| x  Mute note
=============================================================================