Kutless - If It Ends Today Chords & Tabs

 

Kutless Chords & Tabs

Version: 1 Type: Tab 0 ratings
1 star 2 stars 3 stars 4 stars 5 stars
comments

If It Ends Today Tab

   
INTRO
Electric 1
CLEAN
E|-------------------------------------|
B|-------------------------------------|
G|-------11h13-------11h13-------------|
D|-11h13-------11h13-------11h13-13-13-|
A|-------------------------------------|
D|-------------------------------------|

Piano/Electric 3
Distorted
E|----------|
B|----------|
G|----------| 
D|-16-15----|
A|-------13-|
D|----------|

Electric 1
Distorted
E|--------------------------------------------------------|
B|--------------------------------------------------------|
G|------11h13-----11h13------------11h13-----11h13-11-10b-|
D|-11h13-----11h13-----11h13b-11h13-----11h13-------------|
A|--------------------------------------------------------|
D|--------------------------------------------------------|

Electric 2
Chorus Chords
E|------------|
B|------------|
G|------------|
D|-1-11-6-4-3-|
A|-1-11-6-4-3-|
D|-1-11-6-4-3-|

Verse
Electric 2
E|-------|
B|-------|
G|-------|
D|-1-4-3-|
A|-1-4-3-|
D|-1-4-3-|
   * * *
Piano/Electric 3

E|----------|
B|----------|
G|----------| 
D|-16-15----|
A|-------13-|
D|----------|

Pre Chorus

E|--------|
B|--------|
D|-6-9----|
G|-----11-|
A|-6-9-11-|
D|-6-9-11-|

Chorus

Electric 1
Distorted
E|--------------------------------------------------------|
B|--------------------------------------------------------|
G|------11h13-----11h13------------11h13-----11h13-11-10b-|
D|-11h13-----11h13-----11h13b-11h13-----11h13-------------|
A|--------------------------------------------------------|
D|--------------------------------------------------------|

Electric 2

E|------------|
B|------------|
G|------------|
D|-1-11-6-4-3-|
A|-1-11-6-4-3-|
D|-1-11-6-4-3-|

Verse
[ Tab from: http://www.guitartabs.cc/tabs/k/kutless/if_it_ends_today_tab.html ]
Electric 2
E|-------|
B|-------|
G|-------|
D|-1-4-3-| (add in regular strums, listen to the song)
A|-1-4-3-|
D|-1-4-3-|
   * * *
Piano/Electric 3

E|----------|
B|----------|
G|----------| 
D|-16-15----|
A|-------13-|
D|----------|

Pre Chorus

E|--------|
B|--------|
D|--------|
D|-6-9-11-|
A|-6-9-11-|
D|-6-9-11-|

Chorus

Electric 1
Distorted
E|--------------------------------------------------------|
B|--------------------------------------------------------|
G|------11h13-----11h13------------11h13-----11h13-11-10b-|
D|-11h13-----11h13-----11h13b-11h13-----11h13-------------|
A|--------------------------------------------------------|
D|--------------------------------------------------------|

Electric 2

E|------------|
B|------------|
G|------------|
D|-1-11-6-4-3-|
A|-1-11-6-4-3-|
D|-1-11-6-4-3-|

Bridge/ Solo Riff

Electric 2
E|----------------|
B|----------------|
G|----------------|
D|---------4b-----| (mess around with this)
A|-4-6-464---6464-|
D|----------------|

Electric 1

E|-----------------|
B|-----------------|
G|-------15b---20b-|
D|-13b-------------|
A|-----------------|
D|-----------------|

Post Solo

Electric 1
E|---------------------------------|
B|---------------------------------|
G|-15-15-15----------13b-15-15-15b-|
D|----------13-13-16---------------|
A|---------------------------------|
D|---------------------------------|

Chorus

Then also add...
Electric 2
E|----------------|
B|----------------|
G|----------------|
D|---------4b-----| (mess around with this)
A|-4-6-464---6464-|
D|----------------|

End with...
E|-------------------------------------------------|
B|-------------------------------------------------|
G|-15b-15b-15b-15b-15b-15b-20b-20b-20b-20b-20b-20b-|
D|-------------------------------------------------|
A|-------------------------------------------------|
D|-------------------------------------------------|
Comments