Kutless - Again Chords & Tabs

 

Again Chords & Tabs

Kutless Chords & Tabs

Version: 1 Type: Tab 0 ratings
1 star 2 stars 3 stars 4 stars 5 stars
comments

Again Tab

   
----------------------------------------------------------------------------
			     Again - Kutless
----------------------------------------------------------------------------
Tabbed by: Max Andersen
Email: deckrider@hotmail.com
Coments: This is an awesome song but easy to play, enjoy.
Key: 
| \  slide down
| h  hammer-on
| .  palm mute
Tuning: drop-D

riff 1 gtr. 1
e|-----------------------------------------------|
B|-----------------------------------------------|
G|-----------------------------------------------|
D|-----2--2---2-----2---2-----2-----2-----0---0--|
A|---0----------3---------1-----1-----1----------|
D|-0--------0-----0---0-----0-----0-----0---0----|

gtr. 2 (play with delay, listen for timing) 
e|------------|
B|------------|
G|------------|
D|--8--8h9-7--|
A|------------|
E|------------|

riff 2
e|------------------------------------------------------------------|
B|------------------------------------------------------------------|
G|------------------------------------------------------------------|
D|-7--7-7-9-9-9--7-7-7-7-2--2-2-4-4-4-2-2-2-2-5--5-5-7-7-7-5-5-5-5--|
A|-7--7-7-7-7-7--7-7-7-7-2--2-2-2-2-2-2-2-2-2-5--5-5-5-5-5-5-5-5-5--|
E|-7--7-7-7-7-7--7-7-7-7-2--2-2-2-2-2-2-2-2-2-5--5-5-5-5-5-5-5-5-5--|
      . .   .               . .   .              . .   .
cont.
e|---------------------------|
B|---------------------------|
G|---------------------------|
D|-0-0-3-3--0-0-3-3-3/5-5/7--|
A|-0-0-3-3--0-0-3-3-3/5-5/7--|
E|-0-0-3-3--0-0-3-3-3/5-5/7--|
   . .       . .   

riff 3 gtr. 1
e|--------------------------------------------------------------------|
B|--------------------------------------------------------------------|
G|--------------------------------------------------------------------|
D|-0-------------------------------0-0--------------------------------|
A|-0-------------------------------0-0--------------------------------|
E|-0-------------------------------0-0--------------------------------|
[ Tab from: http://www.guitartabs.cc/tabs/k/kutless/again_tab.html ]
gtr. 2
e|--------------------------------------------------------------------|
B|--------------------------------------------------------------------|
G|--------------------------------------------------------------------|
D|-7-5-7-5-7-8-7-5-7-5-7-5-7-8-7-5-7-5-7-5-7-8-7-5-3-3-3-3-3/5-5-5-5--|
A|-7-5-7-5-7-8-7-5-7-5-7-5-7-8-7-5-7-5-7-5-7-8-7-5-3-3-3-3-3/5-5-5-5--|
E|-7-5-7-5-7-8-7-5-7-5-7-5-7-8-7-5-7-5-7-5-7-8-7-5-3-3-3-3-3/5-5-5-5--|
   . . . . . . . . . . . . . . . . . . . . . . . . . . . . . . . . . 

riff 4 gtr. 1
e|--------------------------------------------------------------------|
B|--------------------------------------------------------------------|
G|--------------------------------------------------------------------|
D|-7-8-7-5-7-5-7-0-7-8-7-5-7-5-7-0-7-8-7-5-7-5-7-0-3-3-3-3-3/5-5-5-5--|
A|-7-8-7-5-7-5-7-0-7-8-7-5-7-5-7-0-7-8-7-5-7-5-7-0-3-3-3-3-3/5-5-5-5--|
E|-7-8-7-5-7-5-7-0-7-8-7-5-7-5-7-0-7-8-7-5-7-5-7-0-3-3-3-3-3/5-5-5-5--|
   . . . . . . . . . . . . . . . . . . . . . . . . . . . . . . . . .

gtr.2
e|--------------------------------------------------------------------|
B|--------------------------------------------------------------------|
G|--------------------------------------------------------------------|
D|-7-5-7-5-7-8-7-5-7-5-7-5-7-8-7-5-7-5-7-5-7-8-7-5-3-3-3-3-3/5-5-5-5--|
A|-7-5-7-5-7-8-7-5-7-5-7-5-7-8-7-5-7-5-7-5-7-8-7-5-3-3-3-3-3/5-5-5-5--|
E|-7-5-7-5-7-8-7-5-7-5-7-5-7-8-7-5-7-5-7-5-7-8-7-5-3-3-3-3-3/5-5-5-5--|
   . . . . . . . . . . . . . . . . . . . . . . . . . . . . . . . . . 


riff 5 both gtrs.
e|--------------------------------------------------------------------|
B|--------------------------------------------------------------------|
G|--------------------------------------------------------------------|
D|-7-8-7-5-7-5-7-0-7-8-7-5-7-5-7-0-7-8-7-5-7-5-7-0-3-3-3-3-3/5-5-5-5--|
A|-7-8-7-5-7-5-7-0-7-8-7-5-7-5-7-0-7-8-7-5-7-5-7-0-3-3-3-3-3/5-5-5-5--|
E|-7-8-7-5-7-5-7-0-7-8-7-5-7-5-7-0-7-8-7-5-7-5-7-0-3-3-3-3-3/5-5-5-5--|


Intro/bridge:
riff 1 x2
Verse 1&2:
riff 1 x3
Chorus:
riff 2 x2
Interlude:
riff 3
riff 4 x2 (fade out palm mute @ end on second repeat)
riff 5 x2
Play chorus 
Outro:
riff 5

Thats' all
============================================================================
Comments