Kut U Up - Haves The Have Nots Chords & Tabs

 

Haves The Have Nots Chords & Tabs

Kut U Up Chords & Tabs

Version: 2 Type: Tab 0 ratings
1 star 2 stars 3 stars 4 stars 5 stars
comments

Haves The Have Nots Tab

   
			     THE HAVE'S, THE HAVE NOTS - KUT U UP

Email: XxStock7xX@aol.com
Tuning: Standard

Part A
e|--------------|------------|------------|-------------|
B|--------------|------------|------------|-------------|
G|4.------------|------------|------------|-------------|
D|4.------------|------------|------------|---------9-7-|
A|---2-2-2-2-7b-|-2-2-2-2-7b-|-2-2-2-2-7b-|-2-2-2-2-7-5-|
E|---0-0-0-0----|-0-0-0-0----|-0-0-0-0----|-0-0-0-0-----|
 (played in 4/4 time)

Part B
                   E               E                   D     C#
e|-----------------|---------------|---------------|-------------|
B|-----------------|---------------|---------------|-------------|
G|6.---------------|---------------|---------------|-------------|
D|8.---------9-9-9-|---------9-9-9-|---------9-9-9-|-7-7-7-6-6-6-|
A|---2-2-2-2-7-7-7-|-2-2-2-2-7-7-7-|-2-2-2-2-7-7-7-|-5-5-5-4-4-4-|
E|---0-0-0-0-------|-0-0-0-0-------|-0-0-0-0-------|-------------|
 (played in 6/8 time)
[ Tab from: http://www.guitartabs.cc/tabs/k/kut_u_up/haves_the_have_nots_tab_ver_2.html ]
Part C
e|---------------|--------------|-------------|-------------|
B|---------------|--------------|-------------|-------------|
G|6.-------------|--------------|-------------|-------------|
D|8.-------2-2-2-|-------2-2--2-|-------2-2-2-|-------2-2-2-|
A|---------------|--------------|-3-3-3-------|-3-3-3-------|
E|---0-0-0-------|-0-0-0--------|-------------|-------------|
 (played in 6/8 time)

Part D
                   E                               C
e|-----------------|---------------|---------------|---------------|
B|-----------------|---------------|---------------|---------------|
G|6.---------------|---------------|---------------|---------------|
D|8.---------------|---------------|-5-5-5-5-5-5-5-|-5-5-5-5-5-5-5-|
A|---2-2-2-2-2-2-2-|-2-2-2-2-2-2-2-|-3-3-3-3-3-3-3-|-3-3-3-3-3-3-3-|
E|---0-0-0-0-0-0-0-|-0-0-0-0-0-0-0-|---------------|---------------|

                   E                               C
e|-----------------|---------------|---------------|---------------|
B|-----------------|---------------|---------------|---------------|
G|6.---------------|---------------|---------------|---------------|
D|8.---------------|---------------|-5-5-5-5-5-5-5-|-5-5-5-5-5-5-5-|
A|---2-2-2-2-2-2-2-|-2-2-2-2-2-2-2-|-3-3-3-3-3-3-3-|-3-3-3-3-3-3-3-|
E|---0-0-0-0-0-0-0-|-0-0-0-0-0-0-0-|---------------|---------------|
 (played in 6/8 time)

4.=4/4 time
4.
6.=6/8 time
8.

B=bend

www.kutuup.com
Buy "Pulled-Over" support Kut U Up
Comments