Kut U Up - Destination Chords & Tabs

 

Destination Chords & Tabs

Kut U Up Chords & Tabs

Version: 2 Type: Tab 0 ratings
1 star 2 stars 3 stars 4 stars 5 stars
comments

Destination Tab

   
			     DESTINATION - KUT U UP

Email: XxStock7xX@aol.com
Tuning: Standard

Intro
(picking rhythem=vv^v vv^v vv^)
            G                     G                    E
e|---------------------|---------------------|---------------------|
B|---------------------|---------------------|---------------------|
G|---------------------|---------------------|---------------------|
D|---------------------|---------------------|---------------------|
A|-2-2-2-5-5-5-5-5-5-5-|-2-2-2-5-5-5-5-5-5-5-|-2-2-2-5-5-5-5-5-5-5-|
E|-3-3-3-3-3-3-3-3-3-3-|-3-3-3-3-3-3-3-3-3-3-|-0-0-0-0-0-0-0-0-0-0-|
            E
e|-----------------------|
B|-----------------------|
G|-----------------------|
D|-5-5-5-5-4-4-4-4-2-2-2-|
A|-2-2-2-2-2-2-2-2-2-2-2-|
E|-0-0-0-0-0-0-0-0-0-0-0-|


Solo
e|-------|-------|-------|-------|
B|-------|-------|-------|-------|
G|-9--7--|-4--2--|-22222-|-22222-|
D|-------|-------|-------|-------|
A|-------|-------|-------|-------|
E|-------|-------|-------|-------|

e|-------|-------|-------|-b77777-|
B|-------|-------|-------|--------|
G|-9--7--|-4--2--|-22222-|--------|
D|-------|-------|-------|--------|
A|-------|-------|-------|--------|
E|-------|-------|-------|--------|

Interlude type thing
   E   D     E  D   B    E   D     B A  G
e|---------|-----------|---------|---------|
B|---------|-----------|---------|---------|
G|---------|-----------|---------|---------|
D|---------|-----------|---------|---------|
A|-14--12--|-14-12-9-9-|-14--12--|-9-7-5-5-|
E|-12--10--|-12-10-7-7-|-12--10--|-7-5-3-3-|
[ Tab from: http://www.guitartabs.cc/tabs/k/kut_u_up/destination_tab_ver_2.html ]
Intro again (played an octave higher)
                 E                             E
e|------------------------------|------------------------------|
B|------------------------------|------------------------------|
G|------------------------------|------------------------------|
D|-9--9--9-12-12-12-12-12-12-12-|-9--9--9-12-12-12-12-12-12-12-|
A|10-10-10-10-10-10-10-10-10-10-|10-10-10-10-10-10-10-10-10-10-|
E|------------------------------|------------------------------|
                 G                             G
e|----------------------------|----------------------------------|
B|----------------------------|----------------------------------|
G|----------------------------|-12-12-12-12-11-11-11-11-10-10-10-|
D|-9-9-9-12-12-12-12-12-12-12-|--9--9--9--9--9--9--9--9--9--9--9-|
A|-7-7-7--7--7--7--7--7--7--7-|--7--7--7--7--7--7--7--7--7--7--7-|
E|----------------------------|----------------------------------|

Ending
        G               G                E
e|---------------|---------------|---------------|-3--2---|
B|---------------|---------------|---------------|--------|
G|---------------|---------------|---------------|--------|
D|---------------|---------------|---------------|--------|
A|-2-2-2-2-2-2-2-|-2-2-2-2-2-2-2-|-2-2-2-2-2-2-2-|--------|
E|-3-3-3-3-3-3-3-|-3-3-3-3-3-3-3-|-0-0-0-0-0-0-0-|--------|

        G               G                E
e|---------------|---------------|---------------|-3--2---|
B|---------------|---------------|---------------|--------|
G|---------------|---------------|---------------|--------|
D|---------------|---------------|---------------|--------|
A|-2-2-2-2-2-2-2-|-2-2-2-2-2-2-2-|-2-2-2-2-2-2-2-|--------|
E|-3-3-3-3-3-3-3-|-3-3-3-3-3-3-3-|-0-0-0-0-0-0-0-|--------| (repeat)

www.kutuup.com
Buy "Pulled-Over"-support Kut U Up
Comments