Kurt Nilsen - Shes So High Chords & Tabs

 

Shes So High Chords & Tabs

Kurt Nilsen Chords & Tabs

Version: 1 Type: Tab 0 ratings
1 star 2 stars 3 stars 4 stars 5 stars
comments

Shes So High Tab

   
|----------------------------|
|Kurt Nilsen - Shes so high  |
|----------------------------|


6x's through verse
e-----5-7-5---5-7-9-7-5------
B---5-------5----------------
G----------------------------
D-7---------------------7----
A----------------------------
E----------------------------

Rythm part played through verse 6x's
e---------------------------------
G---------------------------------
D-7-7-7-7-7-7-7-7-7-7-7-7-7-7-7-7-
A---------9-9-9-9-7-7-7-7-5-5-5-5-
E---------------------------------

But somehow I can't believe....
           D
e----4-5-4-2----
B-5-5------3----
G----------2----
D---------------
A---------------
E---------------

Rythm does this at the same time
e----------2----
B----------3----
G----1-2-1-2----
D-2-2-----------
A---------------
E---------------


Verse 1
A      F#m    E         D    A    F#m     E    D
She's blood, flesh and bone, no tucks or silicone,
A      F#m    E              D       A   F#m E  D
she's touch smell, sight, taste and sound,
E                      D                           A 
But somehow I can't believe, that anything should happen,
E                  D                       F#m          E
I know where I belong, and nothing's gonna happen, yea, yea,
[ Tab from: http://www.guitartabs.cc/tabs/k/kurt_nilsen/shes_so_high_tab.html ]
Chorus:
               Bm  D             A           E
Cause she's so high--,high above me,she's so lovely,
         Bm  D            A             E              Bm  D
she's so high--,like Cleopatra, Joan of Arc, or Afrodie--ty,
A                    E              Bm  D D
dooo--da---dooo-da---dooo, she's so high--, high above me,

   A     F#m        E     D     A     F#m    E   D
2. First class and fancy free, she's high society
A     F#m     E       D   A    F#m  E  D
She's got the best of everything,
E                     D               A    F#m   E    D
What could a guy like me, ever really offer? (little solo embelishment)

E                        D                     F#m         E
She's perfect as she can be, why should I even bother--ah--ha--

Chorus than the solo

Solo
   A        G           D           F          A       G
e---------------------------------------------------------------
B-12b-12b-10--12b-12b-10--12b-12b-10-----10-12-14b--17-15-14----
G-----------12----------11----------10-12---------14--------14--
D---------------------------------------------------------------
A---------------------------------------------------------------
E---------------------------------------------------------------

       D                  A
e--17b-12--14-15-14-12--------
B---------------------12b-10--
G-----------------------------
D-----------------------------
A-----------------------------
E-----------------------------


3. She comes to speak to me, I freeze immediately,

Cause what she says sounds so unreal,

Cause somehow I can't believe, that anything should happen,
                                          E           D
I know where I belong, and nothin's gonna happen yea, yea, yea, yea


*CHORUS* than that's the end of the song
Comments