Kurt Nilsen - My Street Chords & Tabs

 

My Street Chords & Tabs

Kurt Nilsen Chords & Tabs

Version: 2 Type: Tab 0 ratings
1 star 2 stars 3 stars 4 stars 5 stars
comments

My Street Tab

Kurt Nilsen - My Street


Listen to the record to get the strumming of the chords right.


Intro:

--0-----0-----|
--0-----0-----|
--8-----9-----|
--6-----7-----|
--x-----x-----|
--x-----x-----|


Verse:

     Stop and stare, walking down the road again. For the better, some peace.
--0------------------0------------------------------------0------------0-----|
--0------------------0------------------------------------0------------0-----|
--8------------------9------------------------------------4------------4-----|
--6------------------7------------------------------------2------------1-----|
--x------------------x------------------------------------x------------x-----|
--x------------------x------------------------------------x------------x-----|

     Charm many in my life so everybody can hear that I,   live on the street
--0---------------------------0--------------------------0-------------0-----|
--0---------------------------0--------------------------0-------------0-----|
--8---------------------------9--------------------------4-------------4-----|
--6---------------------------7--------------------------2-------------1-----|
--x---------------------------x--------------------------x-------------x-----|
--x---------------------------x--------------------------x-------------x-----|
[ Tab from: http://www.guitartabs.cc/tabs/k/kurt_nilsen/my_street_tab_ver_2.html ]
on my street   Yeah on my street
---0---------0---------0---------0--|
---0---------0---------0---------0--|
---8---------9---------8---------9--|
---6---------7---------6---------7--|
---x---------x---------x---------x--|
---x---------x---------x---------x--|


Chours:

     I will always be right here Yeah
--0---------0---------------0-----0--|
--0---------0---------------0-----0--|
--2---------4---------------1-----4--|
--4---------2---------------2-----4--|
--4---------0---------------2-----2--|
--2---------x---------------0-----x--|

     I will always be right here (Yeah)
--0---------0---------------0-----0--|
--0---------0---------------0-----0--|
--4---------6---------------4-----4--|
--6---------6---------------2-----6--|
--6---------4---------------0-----6--|
--4---------x---------------x-----4--|

I will always be right here
-------0---------------0--|
-------0---------------0--|
-------6---------------4--|
-------6---------------2--|
-------4---------------0--|
-------x---------------x--|

Here on my street,   calling my street
--------0---------0----------0---------0--|
--------0---------0----------0---------0--|
--------8---------9----------8---------9--|
--------6---------7----------6---------7--|
--------x---------x----------x---------x--|
--------x---------x----------x---------x--|
Comments