Kurban - Yalan Chords & Tabs

 

Yalan Chords & Tabs

Kurban Chords & Tabs

Version: 1 Type: Bass Tab 0 ratings
1 star 2 stars 3 stars 4 stars 5 stars
comments

Yalan Bass Tab

Giriş( Yok ! Yok! Yok!)
------------------------------------------------------------|
------------------------------------------------------------|
---------------3-3-3-3-----5-5----3-3-----------------------|
----3--3--3-3-----------------------------------------------|

vokal girince (Bana hiç birşey söyleme...)

------------------------------------------------------------|
------------------------------------------------------------|
--------------------3-3-3-3----3--3---------------3333--3-3-|
------3-3-3-3-3-3-3-------------------3-3-3-3-3-3-3---------|
[ Tab from: http://www.guitartabs.cc/tabs/k/kurban/yalan_btab.html ]
''Türkü yakıp Düştüm yoluna.....''

------------------------------------------------------------|
------------------------------------------------------------|
-5--5-5-5----7-5-0-3-3---3---3-3----------------------------|
------------------------------------------------------------|

''Yalan dostum aşk diye birşey yok....''

------------------------------------------------------------|
------------------------------------------------------------|
------------3-3----5-5---3-3-3-----------3-3---5-5---3-3-3--|
--3-3----------------------------3-3------------------------|
Comments