Kuntz Marlene - L'uscita Di Scena Chords & Tabs

 

L'uscita Di Scena Chords & Tabs

Kuntz Marlene Chords & Tabs

Version: 1 Type: Bass Tab 1 rating
1 star 2 stars 3 stars 4 stars 5 stars
comments

L'uscita Di Scena Bass Tab

MARLENE KUNTZ - L'USCITA DI SCENA

BASS TAB

Intro:
G|-------------------------|-------------------------|-------------------------|-------------------------|-------------------------|
D|-------------------------|-------------------------|-------------------------|-------------------------|-------------------------|
A|-------------------------|-------------------------|-------------------------|-3-3-3-3-3----3-3-3-3-3--|-0-0-0-0-0----0-0-0-0-0--|
E|-1-3-0-0-0----1-3-0-0-0--|-1-3-0-0-0----1-3-0-0-0--|-1-3-3-3-3----1-3-3-3-3--|-------------------------|-------------------------|
[ Tab from: http://www.guitartabs.cc/tabs/k/kuntz_marlene/luscita_di_scena_btab.html ]
Verse:
G|-------------------------|-------------------------|-------------------------|-------------------------|-------------------------|
D|*------------------------|-------------------------|-------------------------|-------------------------|-------------------------|
A|*------------------------|-------------------------|-------------------------|-3-3-3-3-3----3-3-3-3-3--|-0-0-0-0-0----0-0-0-0-0--|
E|-1-3-0-0-0----1-3-0-0-0--|-1-3-0-0-0----1-3-0-0-0--|-1-3-3-3-3----1-3-3-3-3--|-------------------------|-------------------------|

G|-------------------------|-------------------------|
D|-------------------------|------------------------*|
A|-------------------------|------------------------*|
E|-1-3-0-0-0----1-3-0-0-0--|-1-3-0-0-0----1-3-0-0-0--|

Chorus:
G|------------------|------------------|------------------|------------------|------------------|
D|*-----------------|------------------|------------------|------------------|-----------------*|
A|*3-3-3-3--3-3-3-3-|-0-0-0-0--0-0-0-0-|-3-3-3-3--3-3-3-3-|-1-1-1-1--1-1-1-1-|-0-0-0-0--0-0-0-0*|
E|------------------|------------------|------------------|------------------|------------------|

After Chorus:
G|--------------------|--------------------|
D|*-------------------|-------------------*|
A|*-------------------|-------------------*|
E|-0-0-0-0---0-0-1-1--|-0-0-0-0---0-0-1-1--|

Per commenti o correzioni la mia mail รจ fleafly_@libero.it
Comments