Kuntz Marlene - L'abitudine Chords & Tabs

 

L'abitudine Chords & Tabs

Kuntz Marlene Chords & Tabs

Version: 1 Type: Bass Tab 0 ratings
1 star 2 stars 3 stars 4 stars 5 stars
comments

L'abitudine Bass Tab

   
MARLENE KUNTZ - L'ABITUDINE

BASS TAB

Drop-D tuning

Strofa (il basso suona solo quando c'è la batteria):
G|-----------|-----------|-----------|
D|*----------|-----------|----------*|
A|*----------|-----------|----------*|
D|-0---------|-0---------|-0---------|

Pre-chorus:
G|-------------------------|-------------------------|
D|-------------------------|-------------------------|
A|-------------------------|-------------------------|
D|-10-10-10-10-10-10-10-10-|-10-10-10-10-10-10-10-10-|

Chorus:
G|----------|--------------|---------------|
D|*---------|--------------|--------------*|
A|*---------|-----5-5-5-5--|--------------*|x 4
D|-5---8-8--|-5------------|-5---8-8-8-7-7-|

e chiude con un G (tasto 5 del D basso)

Parte strumentale:
G|-----------------|---------------------|
D|*----------------|--------------------*|
A|*----------------|--------------------*|x 2
D|-5-5-5-5-7-7-7-7-|-10-10-10-10-8-8-8-8-|

cont.:
G|------------------|
D|*----------------*|
A|*----------------*|x 4
D|-5-5-5-5/7-7-8-8--|
[ Tab from: http://www.guitartabs.cc/tabs/k/kuntz_marlene/labitudine_btab.html ]
cont.:
G|----------------|----------------|----------------|
D|-5-5-5-5-5-5-5--|-8-8-8-8-8-8-8--|-6-6-6-6-6-6-6--|
A|----------------|----------------|----------------|
D|----------------|----------------|----------------|

cont.:
G|-----------------|----------------|-----------------------|
D|*-5-5-5-5-5-5-5--|-8-8-8-8-8-8-8--|-10-10-10-10-10-10-10-*|
A|*----------------|----------------|----------------------*|x 2
D|-----------------|----------------|-----------------------|

cont.:
G|-----------------|-----------------|
D|*----------------|----------------*|
A|*----------------|-5-5-5-5-5-5-5-5*|x 2
D|-5-5-5-5-5-5-5-5-|-----------------|

cont.:
G|-----------------|-----------------|
D|-----------------|-----------------|
A|-----------------|-----------------|
D|-5-5-5-5-8-8-8-8-|-7-7-7-7-8-8-8-8-|

Outro:
G|-----------------|-------------------|
D|*----------------|------------------*|
A|*----------------|------------------*|ripete fino alla fine
D|-5-5-5-5-8-8-8-8-|-5-5-5-5-8-8-10-10-|



Per commenti o correzioni la mia mail è fleafly_@libero.it




Comments