Kumkwat - Highschool Chords & Tabs

 

Highschool Chords & Tabs

Kumkwat Chords & Tabs

Version: 2 Type: Tab 0 ratings
1 star 2 stars 3 stars 4 stars 5 stars
comments

Highschool Tab

this song is some awsome shit

 download this and more songs at www.geocities.com/cowmelker/


this song is 100% acurate because the lead singer/guitarist is my brother and he tught this to me
-------------------------------------------------------------------------------------|
-------------------------------------------------------------------------------------|
------------7--------7-----7-----2-----2----2----4-----4-----6--------6-------6---7--|x2
-------------------------------------------------------------------------------------|
-----5-5------5-5--------------------------------------------------------------------|
-------------------------5-----2----2-----2-----2----3-----3-------4-------4---------|

listen to the song and play the 2nd time with out the first threenotes

[ Tab from: http://www.guitartabs.cc/tabs/k/kumkwat/highschool_tab_ver_2.html ]
-----------------------------------------------------------------------------------------------------|
-----------------------------------------------------------------------------------------------------|
-----7x about 12----2-about 6--4about 6--6about 6-7--------------------------------------------------|
-----------------------------------------------------------------------------------------------------|
-----------------------------------------------------------------------------------------------------|
-----------------------------------------------------------------------------------------------------|
listne to the song to figure out when to play

--------------------------------------------------|
--------------------------------------------------|
--------------------------------------------------|
--------------------------------------------------|x4
-------4--/4444----------------------5555---7777--|
-------2--/2222-palm mute this-3333---5555--------|

-----------------------------------------------------------------------------------------------|
-----------------------------------------------------------------------------------------------|
----------7-7-7-7-7-7-7-7----------------------------------------------------------------------|
----------7-7-7-7-7-7-7-7---7-7-7-7-7-7-7-7----------------------------------------------------|
----------5-5-5-5-5-5-5-5---7-7-7-7-7-7-7-7---4-4-4-4-4-4-4-4--------5-5-5-5----7-7-7-7--------|
----------------------------------5-5-5-5-5-5-5-5---2-2-2-2-2-2-2-2--------3-3-3-3----5-5-5-5--|

play twice then go back to the intro and play again....

listen to the song to know when and how many times to play each thing.....
Comments