Kult - Polska Chords & Tabs

 

Polska Chords & Tabs

Kult Chords & Tabs

Version: 1 Type: Bass Tab 0 ratings
1 star 2 stars 3 stars 4 stars 5 stars
comments

Polska Bass Tab

4 string bass / Standard Tuning
Album: POSŁUCHAJ, TO DO CIEBIE (1987) Disc Club "Razem" by Helicon; republished on CD in 1992 


Main Riff

G|-----------------------|
D|-----------------------|
A|-0--0-0--0-0--0-8-7----|
E|--------------------8--|
[ Tab from: http://www.guitartabs.cc/tabs/k/kult/polska_btab.html ]
G|-----------------------|
D|-----------------------|
A|----------------3-1----|
E|--3--3-3--3-3-3--------|

Bass Solo:
G|----------------------|
D|-----------5-5--7-7---|
A|--5-5--7-7------------|
E|----------------------|

Enjoy! :)
-----------------------------------------------
Tab looks easy, but you need to listen to song
carefully, because it's easy to lose rythm.
Comments