Kult - Po Co Wolnosc Chords & Tabs

 

Po Co Wolnosc Chords & Tabs

Kult Chords & Tabs

Version: 1 Type: Bass Tab 0 ratings
1 star 2 stars 3 stars 4 stars 5 stars
comments

Po Co Wolnosc Bass Tab

   
4 string bass / Standard tuning (EADG)
Album: KASETA (1989) by Arston MD /// republished on CD in 1996 by S.P. Records

Main Riff
G|----------------------------------------------
D|----------------------------------------------
A|--0-0-0-0-0--5-5-5-5-5--0-0-0-0-0--3-3-3-3-3--
E|----------------------------------------------
[ Tab from: http://www.guitartabs.cc/tabs/k/kult/po_co_wolnosc_btab.html ]
G|----------------------------------------------
D|----------------------------------------------
A|--0-0-0-0-0--5-5-5-5-5--0-0-0-0-0-------------
E|-----------------------------------3-3-3-3-3--


Bass Solo
G|---------------------------------------------
D|---------------------------------------------
A|-0-0-0-0-0--5-5-5-5-5--0-0-0-0-0-------------
E|----------------------------------3-3-0-0-3--

Quite simple. Any improvistation on these (A,D,E,G)
Comments