Kult - Pasazer Chords & Tabs

 

Pasazer Chords & Tabs

Kult Chords & Tabs

Version: 1 Type: Tab 0 ratings
1 star 2 stars 3 stars 4 stars 5 stars
comments

Pasazer Tab

   
Main Riff

G|----------------------|
D|--000-----------------|
A|-------111-------333--|
E|------------111-------|
[ Tab from: http://www.guitartabs.cc/tabs/k/kult/pasazer_tab.html ]
Guitar Part:
     Dm     B       Fm      C
E|---5------6-------1-------0------|
B|---6------6-------1-------1------|
G|---7------7-------1-------0------|
D|---7------8-------3-------2------|
A|---5------8-------3-------3------|
E|---5------6-------1-------3------|


---------------------------------------------
Simple:). In this song bassist has no line-handicap,
and can improvise, juts holding the rythm.
Comments