Kult - On My Back Chords & Tabs

 

On My Back Chords & Tabs

Kult Chords & Tabs

Version: 1 Type: Bass Tab 0 ratings
1 star 2 stars 3 stars 4 stars 5 stars
comments

On My Back Bass Tab

On my back bass tab

Verse1
G|----------------------------------|
D|----------------------------------|
A|-10-9-7-----5H7---10-9-7-7-7---7-7|
E|--------5H7-----0------------0----|
[ Tab from: http://www.guitartabs.cc/tabs/k/kult/on_my_back_btab.html ]
Verse2
G|----------------------------|
D|----------------------------|
A|-7-7-7-7-5-5-5-5------------|
E|-----------------7-7-7-7-5-0|  LET OPEN 'E' RING

Chorus
G|----------------------|
D|-----0-2-3-----0-2H3P2|
A|-0-3-------0-3--------|
E|----------------------|

During solo
G|--------------------------------------|
D|--------------------------------------|
A|-10-9-7---10-9-7---10-9-7-------------|
E|--------------------------10-8-7-3-3-0|
Comments