Kult - Komu Bije Dzwon Chords & Tabs

 

Komu Bije Dzwon Chords & Tabs

Kult Chords & Tabs

Version: 1 Type: Tab 0 ratings
1 star 2 stars 3 stars 4 stars 5 stars
comments

Komu Bije Dzwon Tab

   
                                KULT
                          "KOMU BIJE DZWON"
                           transcribed by: Patrick Mazurek

INTRO:

Guitar 1:

E|-----------------------------------------|
B|-----------------------------------------|
G|-2-----0-2-0----0--0-2-0-----------------|
D|----2---------2-----------3-2-0----------|
A|--------------------------------3-2-0---0|
E|--------------------------------------3--|

E|---------------------------------------------|
B|---------------------------------------------|
G|---2-------0-2-0----0--0-2-0-----------------|
D|------0-2---------2-----------3-2-0----------|
A|-0----------------------------------3-2-3-2-0|
E|---------------------------------------------|
                                             
E|-------------------------------------------|
B|-------------0-----------------------------|
G|-2-------0-2----2----0-2-0-----------------|
D|----0-2-----------2---------3-2-0----------|
A|----------------------------------3-2-0---0|
E|----------------------------------------3--|

E|----------------------------------------|
B|-------------0-1------------------------|
G|-2-------0-2-----2--2-0-----------------|
D|----0-2------------------3-2-0----------|
A|-------------------------------3-2-0---0|
E|-------------------------------------3--|

VERSE 1:

Guitar 1:

  Znowu...
E|------------------------------------------|
B|------------------------------------------|
G|-2------0-2-0----0--0-2-0-----------------|
D|----0-2--------2-----------3-2-0----------|
A|---------------------------------3-2-0---0|
E|---------------------------------------3--|

  Mniej...
E|-----------------------------------------------|
B|------------------0----------------------------|
G|---2-2--0-----0-2---2----0-2-0-----------------|
D|----------2-2---------2---------3-2-0----------|
A|-0------------------------------------3-2-0---0|
E|--------------------------------------------3--|






  Codzienne...
E|------------------------------------------------|
B|------------------------------------------------|
G|---2-2--0-----0-2-0----0--0-2-0-----------------|
D|----------2-2--------2-----------3-2-0----------|
A|-0-------------------------------------3-2-0---0|
E|---------------------------------------------3--|

  Byæ...
E|----------------------------------------|
B|-------------0-1------------------------|
G|-2-------0-2-----2--2-0-----------------|
D|----0-2------------------3-2-0----------|
A|-------------------------------3-2-0---0|
E|-------------------------------------3--|

BRIDGE:

Guitar 1 & 2:

  Nie...  
   Am Em Am Em Am Em Em Am
E|-5--0--5--0--5--0--0--5|
B|-5--0--5--0--5--0--0--5|
G|-5--0--5--0--5--0--0--5|    X2
D|-7--2--7--2--7--2--2--7|
A|-7--2--7--2--7--2--2--7|
E|-5--0--5--0--5--0--0--5|

CHORUS 1:

Guitar 1:

  Bim...
E|--------------------------------------------|
B|--------------------------------------------|
G|-2-2-0----0-2-0----0--0-2-0-----------------|
D|-------2---------2-----------3-2-0----------|
A|-----------------------------------3-2-0---0|
E|-----------------------------------------3--|

  Bim...
E|----------------------------------------------|
B|----------------------------------------------|
G|---2-------0-2-0----0--0-2-0------------------|
D|------0-2---------2-----------3-2-0-----------|
A|-0----------------------------------3-2-0----0|
E|-------------------------------------------3--|

  Bim...
E|----------------------------------------------|
B|----------------------------------------------|
G|-2-2--0----0-2-0----0--0-2-0------------------|
D|--------2---------2-----------3-2-0-----------|
A|------------------------------------3-2-0----0|
E|-------------------------------------------3--|





  Bim...
E|-------------------------------------------------|
B|-------------------------------------------------|
G|---2-2--0-----0-2-0----0--0-2-0------------------|
D|----------2-2--------2-----------3-2-0-----------|
A|-0-------------------------------------3-2-0----0|
E|----------------------------------------------3--|

SOLO:

Guitar 1:

E|-----------------------------------------------|
B|-----------------------------------------------|
G|-2-2--0-----0-2-0----0--0-2-0------------------|
D|--------2-2--------2-----------3-2-0-----------|
A|-------------------------------------3-2-0----0|
E|--------------------------------------------3--|

Guitar 2:

E|------------------------------------------------|
B|-------------------3---3-6-5-3------------------|
G|-2-2-2-4-4-4-5-4-5---5---------5-4-2-1---1-2-1-2|
D|---------------------------------------4--------|
A|------------------------------------------------|
E|------------------------------------------------|

Guitar 1:

E|-------------------------------------------|
B|-------------------------------------------|
G|-2-------0-2-0----0--0-2-0-----------------|
D|----0-2---------2-----------3-2-3-2--------|
A|------------------------------------2-3-2-0|
E|-------------------------------------------|

Guitar 2:

E|----------------------------------------------|
B|-------------------3--3-----------------------|
G|-2-1-2-4-2-4-5-4-5------2-4-5-0------0----2--2|
D|---------------------------------2-2----2-----|
A|----------------------------------------------|
E|----------------------------------------------|

Guitar 1:

E|----------------------------------------------|
B|---------------0------------------------------|
G|---2-------0-2----2----0-2-0------------------|
D|------0-2-----------2---------3-2-0-----------|
A|-0----------------------------------3-2-0----0|
E|-------------------------------------------3--|







Guitar 2:

E|-------------------------1-0--------------------|
B|-------------------3---3-----3------------------|
G|-2-2-2-4-4-4-5-4-5---5---------5-4-2-1----1-2--2|
D|---------------------------------------4--------|
A|------------------------------------------------|
E|------------------------------------------------|

Guitar 1:

E|----------------------------------------------|
B|------------------0-1-------------------------|
G|---2-2--0-----0-2-----2--2-0------------------|
D|----------2-2-----------------3-2-0-----------|
A|-0----------------------------------3-2-0----0|
E|-------------------------------------------3--|

Guitar 2:

E|-------------------------1-3-5----------------|
B|-------------------3--3--------5-3-1----------|
G|-2-1-2-4-2-4-5-4-5-------------------4-2-1-2-2|
D|----------------------------------------------|
A|----------------------------------------------|
E|----------------------------------------------|

VERSE 2:

Guitar 1:
[ Tab from: http://www.guitartabs.cc/tabs/k/kult/komu_bije_dzwon_tab.html ]
  Wiêc...
E|--------------------------------------------|
B|--------------------------------------------|
G|-2-------0-2-0----0--0-2-0------------------|
D|----0-2---------2-----------3-2-0-----------|
A|----------------------------------3-2-0----0|
E|-----------------------------------------3--|

Guitar 2:

E|------------------------1-0------------------|
B|-------------------3--3-----3----------------|
G|-2-2-2-4-4-4-5-4-5------------5-4-2-1---1-2-2|
D|--------------------------------------4------|
A|---------------------------------------------|
E|---------------------------------------------|

Guitar 1:

  We...
E|----------------------------------------------|
B|----------------------------------------------|
G|---2-------0-2-0----0--0-2-0------------------|
D|------0-2---------2-----------3-2-3-2---------|
A|-0------------------------------------2-3--2-0|
E|----------------------------------------------|




Guitar 2:

E|----------------------------------------------|
B|-------------------3--3-----------------------|
G|-2-1-2-4-2-4-5-4-5------2-4-5-0-------0---2--2|
D|----------------------------------2-2---2-----|
A|----------------------------------------------|
E|----------------------------------------------|

Guitar 1:

  Brzdêk...
E|-------------------------------------------------|
B|------------------0------------------------------|
G|---2-2--0-----0-2----2----0-2-0------------------|
D|----------2-2----------2---------3-2-0-----------|
A|-0-------------------------------------3-2-0----0|
E|----------------------------------------------3--|

Guitar 2:

E|------------------------------------------------|
B|-------------------3---3-6-5-3------------------|
G|-2-2-2-4-4-4-5-4-5---5---------5-4-2-1---1-2-1-2|
D|---------------------------------------4--------|
A|------------------------------------------------|
E|------------------------------------------------|

Guitar 1:

  Który...
E|-----------------------------------------------|
B|----------------------------0-1----------------|
G|---2-2--0-----0-2-0----0--2-----2--------------|
D|----------2-2--------2-------------2-0---------|
A|-0-------------------------------------3--2-0-0|
E|-----------------------------------------------|

Guitar 2:

E|------------------------1-3-5----------------|
B|-------------------3--3-------5-3-1----------|
G|-2-1-2-4-2-4-5-4-5------------------4-2-1-2-2|
D|---------------------------------------------|
A|---------------------------------------------|
E|---------------------------------------------|

BRIDGE 2:

Nie...
Am Em Am Em Am Em Em Am

CHORUS 2:

Guitar 1:






  Tak...
E|-----------------------------------------|
B|-----------------------------------------|
G|-2-----0-2-0----0--0-2-0-----------------|
D|----2---------2-----------3-2-0----------|
A|--------------------------------3-2-0---0|
E|--------------------------------------3--|

Guitar 2:

E|------------------------------------------------|
B|-------------------3---3-6-5-3------------------|
G|-2-2-2-4-4-4-5-4-5---5---------5-4-2-1---1-2-1-2|
D|---------------------------------------4--------|
A|------------------------------------------------|
E|------------------------------------------------|

Guitar 1:

  Bim...
E|----------------------------------------------|
B|----------------------------------------------|
G|---2-------0-2-0----0--0-2-0------------------|
D|------0-2---------2-----------3-2-3-2---------|
A|-0------------------------------------2-3--2-0|
E|----------------------------------------------|

Guitar 2:

E|----------------------------------------------|
B|-------------------3--3-----------------------|
G|-2-1-2-4-2-4-5-4-5------2-4-5-0------0----2--2|
D|---------------------------------2-2----2-----|
A|----------------------------------------------|
E|----------------------------------------------|

Guitar 1:

  Bim...
E|-------------------------------------------|
B|-------------------------------------------|
G|---2-----0-2-0----0--0-2-0-----------------|
D|------2---------2-----------3-2-0----------|
A|-0--------------------------------3-2-0---0|
E|----------------------------------------3--|

Guitar 2:

E|------------------------1-0--------------------|
B|-------------------3--3-----3------------------|
G|-2-2-2-4-4-4-5-4-5------------5-4-2-1---1-2-1-2|
D|--------------------------------------4--------|
A|-----------------------------------------------|
E|-----------------------------------------------|

OUTRO:

Guitar 1:



  Bim...
E|-------------------------------------------|
B|-------------------------------------------|
G|---2-----0-2-0----0--0-2-0-----------------|
D|------2---------2----------3-2-0-----------|
A|-0-------------------------------3-2-3-2--0|
E|-------------------------------------------|

Guitar 2:

E|-------------------------------------------|
B|-------------------3--3-------5-3-1--------|
G|-2-2-2-4-4-4-5-4-5------2-4-5-------1---1-2|
D|--------------------------------------4----|
A|-------------------------------------------|
E|-------------------------------------------|

E|---------5---5|
B|---5----5----5|
G|--5----5-----5|
D|-7-----------7|
A|--------------|
E|--------------|


LYRICS:

Verse 1:

Znowu dziœ widzê zachód S³oñca, znowu uda³o siê doczekaæ koñca
Mniej szczêœcia mieli, ilu ich by³o - wielu, nawet ich nie liczy³em
Codzienne ¿niwo swoje zbieram, kres podró¿y ka¿dego dnia
Byæ czy mieæ - takie dwa pytania, bli¿ej ku celom posiadania

Bridge 1:

Nie mam potrzeby zbyt wiele wiedzieæ
Nie mam potrzeby wiedzieæ zbyt wiele
Gdy wszystko skoñczy siê jak myœla³em
Wsyp mnie do ziemi, st¹d przyjecha³em

Chorus 1:

Bim bom ba bim bom, sk¹d wiedzieæ wszystko komu bije dzwon
Bim bom ba bim bom, sk¹d wiedzieæ wszystko komu bije dzwon
Bim bom ba bim bom, sk¹d wiedzieæ wszystko komu bije dzwon
Bim bom ba bim bom, sk¹d wiedzieæ wszystko komu bije dzwon

Verse 2:

Wiêc g³owa do góry gdy dzieñ wstaje rano, od tego s¹ nogi by ³aziæ na nich
We dni czy gorsze czy lepsze, ten jest ostatni, który nie pierwszy
Brzdêk pêk³a czara pe³na goryczy, rozlanych kropel ju¿ nie policzê
Który dzieñ bêdzie ten dzieñ ostatni, by³em czy mia³em dwie zagadki







Bridge 2:

Nie mam potrzeby zbyt wiele wiedzieæ
Nie mam potrzeby wiedzieæ zbyt wiele
Gdy wszystko skoñczy siê jak myœla³em
Wsyp mnie do morza, st¹d przyjecha³em

Chorus 2:

Tak bim bom ba bim bom, sk¹d wiedzieæ wszystko komu bije dzwon
Bim bom ba bim bom, sk¹d wiedzieæ wszystko komu bije dzwon
Bim bom ba bi bi bi bom, sk¹d wiedzieæ wszystko komu bije dzwon
Bim bom ba bim bom, sk¹d wiedzieæ wszystko komu bije dzwon

No w³aœnie...


Commments: pazee@poczta.fm
Comments