Kult - Get A Life Chords & Tabs

 

Get A Life Chords & Tabs

Kult Chords & Tabs

Version: 1 Type: Bass Tab 0 ratings
1 star 2 stars 3 stars 4 stars 5 stars
comments

Get A Life Bass Tab

   
Get a life

Verse
G|-----------|
D|-----------|
A|-----------|X4
E|-5-5-5-5-7-|

G|-----------|
D|-----------|
A|-----------|X4
E|-7-7-7-7-9-|

G|-----------|
D|-----------|
A|-----------|X1
E|-9-9-9-7-5-|

Chorus
G|-------------|
D|-------------|
A|---4-2-------|
E|-0-----5-3-2-|
[ Tab from: http://www.guitartabs.cc/tabs/k/kult/get_a_life_btab.html ]
During solo
G|------------------|
D|------------------|
A|-----------7-5-4--| x2
E|-5-5-5-5-7-------5|

G|------------------|
D|------------------|
A|-----------9-7-6--| x2
E|-7-7-7-7-9-------7|

G|----------|
D|----------|
A|----------|
E|-9-9-9-7-5|

G|------------------|
D|------------------|
A|-----------7-5-4--| REAPEAT UNTIL VERSE RESUMES.
E|-5-5-5-5-7-------5|
Comments