Kult - Echo Chords & Tabs

 

Echo Chords & Tabs

Kult Chords & Tabs

Version: 1 Type: Bass Tab 0 ratings
1 star 2 stars 3 stars 4 stars 5 stars
comments

Echo Bass Tab

Echo bass tab.

Verse
G|----------------|----------------|
D|----------------|8-8-8-8-8-8-8-8-|
A|-9-9-9-9-9-9-9-9|----------------| ----------------------\
E|----------------|----------------|                        \ 
                                                             X6
G|-11-11-11-11-11-11-11-11|--------------------------|      /
D|------------------------|11-11-11-11-11-11-11-11-11|-----/
A|------------------------|--------------------------|
E|------------------------|--------------------------|
[ Tab from: http://www.guitartabs.cc/tabs/k/kult/echo_btab.html ]
Chorus
G|--------------------|--------------------|
D|--------------------|--------------------|
A|-3-2-0---3-2---3-2/5|-3-2-0---3-2---3-2/5|
E|-------------0------|-------------0------|

Build up
G|--------------|
D|--------------|
A|-3-3-3-2-2-2--|
E|-------------0|  LET OPEN 'E' RING

Ending 1
G|--------------|
D|--------------|
A|-3-2-0---3-2--|  LET OPEN 'A' RING
E|-------------0|  LET OPEN 'E' RING

Ending 2
G|----------------------|
D|----------------------|
A|-3-3-2-2-3-3/5-5------|
E|-----------------5-5-3|
Comments