Kula Shaker - Start All Over Chords & Tabs

 

Start All Over Chords & Tabs

Kula Shaker Chords & Tabs

Version: 1 Type: Tab 0 ratings
1 star 2 stars 3 stars 4 stars 5 stars
comments

Start All Over Tab

   
-------------------------------------------------------------------------------
			     START ALL OVER - Kula Shaker
-------------------------------------------------------------------------------

By:Terence Hall tez@affordablesupplements.co.uk

Listen to the CD for the strumming, don't have the time to do it all at the mo ;)

This is the intro;

e|-0-0-0---------------------------------------|
B|-------3-0-------3-2-0-1-1---1-3-1-----------|
G|-----------2-2-2-----------0-------2-2-0-2-0-|
D|---------------------------------------------|
A|---------------------------------------------|
E|---------------------------------------------|

Verse; 

e|-0---0---0--------0---0---------0---3---3------|
B|-0---2---3--------2---0---------1---3---3------|
G|-0---2---2--------2---2---------0---0---0------|
D|-2---2---2--------2---2---------2---0---0------|
A|-2---0---0--------0---0---------3---2---0------|
E|-0---0---0--------0---0---------0---3---2------|
   Em  A  Asus7(?)  A  Asus2(?)   C   G  Gsus2(?)

Oh my love I wish that we could start all over
I'm so gone I really wanna love again
Cos I know if it's real noone else could understand

                                         |not sure of this bit!|
e|-0---0---0--------0---0---------0---3--|-0---0-----0---------|
B|-0---2---3--------2---0---------1---3--|-1-1-----1-----1-----|
G|-0---2---2--------2---2---------0---0--|-0-----0-----0-------|
D|-2---2---2--------2---2---------2---0--|-2-------------------|
A|-2---0---0--------0---0---------3---2--|-3-------------------|
E|-0---0---0--------0---0---------0---3--|-0-------------------|
   Em  A  Asus7(?)  A  Asus2(?)   C   G  | C                   |

Take me back make me feel make it real cos I'm so gone (I'm so gone)

e|-0---0---0--------0---0---------0---3---3------|
B|-0---2---3--------2---0---------1---3---3------|
G|-0---2---2--------2---2---------0---0---0------|
D|-2---2---2--------2---2---------2---0---0------|
A|-2---0---0--------0---0---------3---2---0------|
E|-0---0---0--------0---0---------0---3---2------|
   Em  A  Asus7(?)  A  Asus2(?)   C   G  Gsus2(?)

Oh my love I wish that we could start all over
I'm so gone I feel like I'm halfway there

Guitar solo (chords only I'm afraid, any help appreciated!)
[ Tab from: http://www.guitartabs.cc/tabs/k/kula_shaker/start_all_over_tab.html ]
e|-1---0---3---1---0---2-|
B|-1---1---3---1---1---3-|
G|-2---0---0---2---0---2-|
D|-3---2---0---3---2---0-|
A|-0---3---2---0---3---0-|
E|-1---0---3---1---0---x-|
   F   C   G   F   C   D

e|-0---0---0--------0---0---------0---3---3------|
B|-0---2---3--------2---0---------1---3---3------|
G|-0---2---2--------2---2---------0---0---0------|
D|-2---2---2--------2---2---------2---0---0------|
A|-2---0---0--------0---0---------3---2---0------|
E|-0---0---0--------0---0---------0---3---2------|
   Em  A  Asus7(?)  A  Asus2(?)   C   G  Gsus2(?)

Cos I know if it's real noone else could understand

Link;

e|-0---0---0--------0---0---------0---0-|
B|-0---2---3--------2---0---------1---2-|
G|-0---2---2--------2---2---------0---2-|
D|-2---2---2--------2---2---------2---2-|
A|-2---0---0--------0---0---------3---0-|
E|-0---0---0--------0---0---------0---0-|
   Em  A  Asus7(?)  A  Asus2(?)   C   A  

Take me back, make me feel, make it real, make it real

e|-3--0----0---3---0----0-|
B|-3--0----1---3---0----1-|
G|-0--0----0---0---0----0-|
D|-0--2----2---0---2----2-|
A|-2--2----3---2---2----3-|
E|-3--0----0---3---0----0-|
   G  Em   C   G   Em   C

I'm so gone (take me back) I'm so gone

e|-0---0---0--------0---0---------0---3---3------|
B|-0---2---3--------2---0---------1---3---3------|
G|-0---2---2--------2---2---------0---0---0------|
D|-2---2---2--------2---2---------2---0---0------|
A|-2---0---0--------0---0---------3---2---0------|
E|-0---0---0--------0---0---------0---3---2------|
   Em  A  Asus7(?)  A  Asus2(?)   C   G  Gsus2(?)

Oh my love I wish that we could start all over
I'm so gone I really wanna love again

Outro;

e|-1---0---3---1---0---3---1---0---3---1---0|
B|-1---1---3---1---1---3---1---1---3---1---1|
G|-2---0---0---2---0---0---2---0---0---2---0|
D|-3---2---0---3---2---0---3---2---0---3---2|
A|-0---3---2---0---3---2---0---3---2---0---3|
E|-1---0---3---1---0---3---1---0---3---1---0|
   F   C   G   F   C   G   F   C   G   F   C

And I really wanna start all over
Really wanna love again
Really wanna start all over
Really wanna love....
..again


Cheers folks!
Comments