Ks Choice - Everything For Free Chords & Tabs

 

Everything For Free Chords & Tabs

Ks Choice Chords & Tabs

Version: 1 Type: Bass Tab 0 ratings
1 star 2 stars 3 stars 4 stars 5 stars
comments

Everything For Free Bass Tab

   
Artist: K's Choice
Album:  Cocoon Crash
Song:   Everything For Free
Tab:    By Erwin Edel (BassEdel@hotmail.com)

This one's a request by April.... :-) you know who you are!

I'n not sure if I got all of it right, since I listened to a MP3 with a lot 
of
background noise while I was tabbing it.
Also this one's not correct in the sence that I just describe what I play. 
It's
sounds OK with the song, but I don't think it is the actual bass-line.

Anyway here goes nothing...

I used standard tuning

Verse:
G:|-------------------------------------------------|
D:|---------------------------------5-5-5-5-5-5-5-5-| repeat
A:|-2-2-2-2-2-2-2-2-5-5-5-5-5-5-5-5-----------------| 4 times
E:|-------------------------------------------------|

Pre-chorus
G:|-----------------------------------------------------------------|
D:|-----------------------------------------------------------------|
A:|-----------------------------------------------------------------|
E:|-2-2-2-2-2-2-2-2-3-3-3-3-3-3-3-3-5-5-5-5-5-5-5-5-0-0-0-0-0++++++-|
[ Tab from: http://www.guitartabs.cc/tabs/k/ks_choice/everything_for_free_btab.html ]
Chorus
G:|---------------------------------------------------------------------|
D:|---------------------------------------------------------------------| 
repeat
A:|---------------------------------------------------------------------| 2 
times
E:|-5-5-5-5-4-4-4-4-5-5-5-5-7-5-5-5-10-10-10-10-8-8-8-8-5-5-5-5-1-1-3-3-|

back to verse, but this repeat only 2 times,
then pre-chorus again and 2 times chorus

once again back to verse 2 times, then

Break
G:|---------------------------------|
D:|---------------------------------| repeat
A:|-5-7-8-7++-5-5-5-2-3-5-1++-1-1-1-| 2 times
E:|---------------------------------|

then chorus 2 times followed by

Ending
G:|-------------------------------------------------------------------|
D:|-------------------------------------------------------------------|
A:|-10-10-10-10-8-8-8-8-0-0-0-0-0-0-0-1-1-1-1-3-3-3-3-2++++++++++++++-|
E:|-------------------------------------------------------------------|

That's a wrap.
Once again as I said it's now how it's done in the song, but it's sounds OK 
to me.

Any comments, suggestions, complaints or whatever you like can be sent to:

BassEdel@hotmail.com

Comments