Kryst The Conqueror - Thunder Thruster Chords & Tabs

 

Thunder Thruster Chords & Tabs

Kryst The Conqueror Chords & Tabs

Version: 1 Type: Tab 0 ratings
1 star 2 stars 3 stars 4 stars 5 stars
comments

Thunder Thruster Tab

   
THUNDER THRUSTER

e------------------------------------------------|
b------------------------------------------------|
g------------------------------------------------|
d-------------------------5--4--7----------------|
a-----------0--2--------3--2--5------------------|
E--0--3----------0-------------------------------|
    3 times

e-----------------------------------------|-------------------|
b-----------------------------------------|-------------------|
g-----------------------------------------|-------------------|
d---------------------7--5--4-----------|---------------------|
a-------0--2--------5--3--2------------|-------7--------------|
E-0-3-------0---------------------------|-------5-------------|


e--------------------------------------------------------------------|
b--------------------------------------------------------------------|
g--------------------------------------------------------------------|
d---------------0----------------------------------------------------|
a----0--3--2-----3--2--0--------------------7------------------------|
E-----------------------------3-------------5------------------------|
                                    2times


e-----------------------------------------|
b-----------------------------------------|
g-----------------------------------------|
d---------------0-------------------------|
a----0--3--2-----3--2--0------------------|
E-----------------------------3-----------|
                                   4 times


e----------------------------------------------------|
b----------------------------------------------------|
g----------------------------------------------------|
d----------------------------------------------------|
a----44444444-----55555555------7777----5555---------|
E----22222222-----33333333------5555-----3333--------|
                         3times

e-----------------------------------------------------------|
b-----------------------------------------------------------|
g-----------------------------------------------------------|
d-----------------------------------------------------------|
a----44444444-----55555555------7777------------------------|
E----22222222-----33333333------5555------------------------|

e----------------------------------------------------------|
b----------------------------------------------------------|
g----------------------------------------------------------|
d---------------0------------------------------------------|
a----0--3--2-------3--2--0----------------7----------------|
E-----------------------------3-----------5----------------|
                                            2 times

e-----------------------------------------|
b-----------------------------------------|
g-----------------------------------------|
d---------------0-------------------------|
a----0--3--2-----3--2--0------------------|
E-----------------------------3-----------|
                                   4 times

e----------------------------------------------------------|
b----------------------------------------------------------|
g----------------------------------------------------------|
d----------------------------------------------------------|
a----44444444-----55555555------7777-----5555--------------|
E----22222222-----33333333------5555-----3333--------------|
                          3 times

e-------------------------------------------|
b-------------------------------------------|
g-------------------------------------------|
d-------------------------------------------|
a----44444444-----55555555------7777--------|
E----22222222-----33333333------5555--------|


e--------------------------------------------------------|
b--------------------------------------------------------|
g--------------------------------------------------------|
d---------------0----------------------------------------|
a----0--3--2-----3--2--0-----------------------7---------|
E-----------------------------3----------------5---------|
                                                2 times

e-----------------------------------------|
b-----------------------------------------|
g-----------------------------------------|
d---------------0-------------------------|
a----0--3--2-----3--2--0------------------|
E-----------------------------3-----------|
                                           4 times

[ Tab from: http://www.guitartabs.cc/tabs/k/kryst_the_conqueror/thunder_thruster_tab.html ]
e---------------------------------------------------------|
b---------------------------------------------------------|
g---------------------------------------------------------|
d---------------------------------------------------------|
a----44444444-----55555555------7777-----5555-------------|
E----22222222-----33333333------5555-----3333-------------|
                                         2 times(with solo)

e------------------------------------------------------------------------|
b------------------------------------------------------------------------|
g------------------------------------------------------------------------|
d------------------------------------------------------------------------|
a----44444444-----55555555------7777-----9999----------------------------|
E----22222222-----33333333------5555-----7777----------------------------|
		with solo


e-----------------------------------------------------------------|
b-----------------------------------------------------------------|
g-----------------------------------------------------------------|
d--- 55555555-----77777777-------99999999-------------------------|
a----33333333-----55555555-------77777777-------------------------|
E-----------------------------------------------------------------|
                                with solo

e-----------------------------------------------------------|
b-----------------------------------------------------------|
g-----------------------------------------------------------|
d--- -------99999999----------------------------------------|
a-----------77777777----------------------------------------|
E-----------------------------------------------------------|


e--------------------------------------------|
b--------------------------------------------|
g--------------------------------------------|
d-----------------------5--4--7--------------|
a-----------0--2--------3--2--5--------------|
E--0--3----------0---------------------------|
		3times

e------------------------------------------|
b------------------------------------------|
g------------------------------------------|
d-------------------7--5--4----------------|
a-------0--2--------5--3--2----------------|
E-0-3-------0------------------------------|

e-----------------------------------------------------------------------|
b-----------------------------------------------------------------------|
g-----------------------------------------------------------77777777----|
d---99999999------------------------------------------------55555555----|
a---77777777----------------55555555------33333333----------------------|
E---------------------------33333333------11111111----------------------|
                                 4 times


e
b
g
d
a----99999999----333333333---55555555-------------|
E----77777777----11111111----33333333-------------|


e---------------------------------------------------------------------|
b---------------------------------------------------------------------|
g-----------------------------------------------------------77777777--|
d---99999999------------------------------------------------55555555--|
a---77777777----------------55555555------33333333--------------------|
E---------------------------33333333------11111111--------------------|
                                             4 times with solo


e
b
g
d
a----99999999----333333333---55555555-------------|
E----77777777----11111111----33333333-------------|

e----------------------------------------------------------|
b----------------------------------------------------------|
g----------------------------------------------------------|
d----------------------------------------------------------|
a----44444444-----55555555-------7777----5555--------------|
E----22222222-----33333333------5555-----3333--------------|
		3 times


e-----------------------------------------|
b-----------------------------------------|
g-----------------------------------------|
d-----------------------------------------|
a----44444444-----55555555------7777------|
E----22222222-----33333333------5555------|

e-------------------------------------------------------|
b-------------------------------------------------------|
g-------------------------------------------------------|
d---------------0---------------------------------------|
a----0--3--2------3--2--0----------------------7--------|
E-----------------------------3----------------5--------|
		2 times


e--------------------------------------|
b--------------------------------------|
g--------------------------------------|
d---------------0----------------------|
a----0--3--2--------3--2--0------------|
E-----------------------------3--------|
                      4 times

e--------------------------------------|
b--------------------------------------|
g--------------------------------------|
d--------------------------------------|
a-------7----7---7--7--7---------------|
E-------5----5---5--5--5---------------|


any corrections E-mail MrMajik331@hotmail.com    *still working on the solo*
Comments