Krux - Black Room Chords & Tabs

 

Black Room Chords & Tabs

Krux Chords & Tabs

Version: 1 Type: Tab 0 ratings
1 star 2 stars 3 stars 4 stars 5 stars
comments

Black Room Tab

Krux - Black Room, from the album 'Krux' (2002).
Krux are: Leif Edling (ex-Candlemass), Mats Levén (ex-Yngwie Malmsteen), Jörgen 
and Peter Stjärnvind

Tabbed by Peter Kondrup

Tuning is drop C. Slow and simple but incredibly heavy song.

[ Tab from: http://www.guitartabs.cc/tabs/k/krux/black_room_tab.html ]
  Main riff (two var.)
D|--------------------------------- ---------------------------------|
A|--------------------------------- ---------------------------------|
F|--------------------------------- ---------------------------------|
C|-0---3-2---5-1---7---6-2-3-2---3- -0---3-2---5-1---7---6-3-2-3---3-|
G|-0---3-2---5-1---7---6-2-3-2---3- -0---3-2---5-1---7---6-3-2-3---3-|
C|-0---3-2---5-1---7---6-2-3-2---3- -0---3-2---5-1---7---6-3-2-3---3-|

  Bridge-thingy
D|----------------------------------|
A|----------------------------------|
F|----------------------------------|
C|-----12------11------12------13---|
G|---12------11------12------13-----|
C|-12----1211----1112----1213----13-|

  Solo rhythm 1
D|---------------------------------|
A|---------------------------------|
F|---------------------------------|
C|-7---7-6-7-8-8-7-2---2-1-2---2-1-|
G|-7---7-6-7-8-8-7-2---2-1-2---2-1-|
C|-7---7-6-7-8-8-7-2---2-1-2---2-1-|

  Solo rhythm 2
D|-----------------|
A|-----------------|
F|-----------------|
C|-7---6---7---8---|
G|-5---4---5---6---|
C|-7---6---7---8---|
Comments