Kroger Chad - Hero Chords & Tabs

 

Hero Chords & Tabs

Kroger Chad Chords & Tabs

Version: 2 Type: Tab 0 ratings
1 star 2 stars 3 stars 4 stars 5 stars
comments

Hero Tab

"Hero"

NOTE: STRUMMING PATTERNS ARE NOT TABBED
 
VERSE:

E---4----0--
B---4----0--
G---4----1--   x2
D---6----2--
A---6----2--
E---4----0--

E---3---0---0-0-0-0-0
B---3---2---0-0-0-0-0
G---0---2---1-1-1-1-1
D---0---2---2-2-2-2-2
A---2---0---2-2-2-2-2
E---3-------0-0-0-0-0
            P.M.-----

CHORUS:

E---3---0---2---3---0---0-0-0-0-0
B---3---2---4---3---2---0-0-0-0-0
G---0---2---4---0---2---1-1-1-1-1
D---0---2---4---0---2---2-2-2-2-2
A---2---0---2---2---0---2-2-2-2-2
E---3-----------3-------0-0-0-0-0
                        P.M.------

VERSE

CHORUS

SOLO:

E----------------------------------------------------------
B----------------------------------------------------------
G----------------------------------------------------------
D---12-11-12-11-12-11--9-9---12-11-12-11-12-11--7-7---9---11
A----------------------------------------------------------
E----------------------------------------------------------
[ Tab from: http://www.guitartabs.cc/tabs/k/kroger_chad/hero_tab_ver_2.html ]
E----------------------------------------------------------
B----------------------------------------------------------
G---11-9-11-9-11-9--7-7---11-9-11-9-11-9--6-6--4--6--7--9--
D----------------------------------------------------------
A----------------------------------------------------------
E----------------------------------------------------------

BACKING FOR SOLO: SAME AS CHORUS

BRIDGE:

E-------5p3--------7p5--------9p7--------9p7--
B----3-----3-----5----5-----7----7-----7----7-
G-----4-----4-----6----6-----8----8-----8----8
D---5-----------7----------9----------9-------
A---------------------------------------------
E---------------------------------------------

E-------5p3--------7p5-----0-0-0-0-0
B----3-----3-----5----5----0-0-0-0-0
G-----4-----4-----6----6---1-1-1-1-1
D---5-----------7----------2-2-2-2-2
A--------------------------2-2-2-2-2
E--------------------------0-0-0-0-0
                           P.M. ----

CHORUS

ENDS ON:

E---2
B---4
G---4
D---4
A---2
E----
Comments