Kroeger Chad - Hero Chords & Tabs

 

Hero Chords & Tabs

Kroeger Chad Chords & Tabs

Version: 5 Type: Tab 1 rating
1 star 2 stars 3 stars 4 stars 5 stars
comments

Hero Tab

Song: Hero
Artist: Chad Kroeger Featuring Josey Scott
Album: Spiderman Soundtrack
E-mail: the_contradiction@hotmail.com
Tuning: Standard (EADGBe)

|| = Break (sudden stop)

(listen to track for proper strumming pattern) 

Verse (Clean)
e|--------------------------------------------------|
B|--------------------------------------------------|
G|----------------------------------Repeat----------|
D|-6-6-66-6-6-66-2-2-22-2-2-25----------------------|
A|-6-6-66-6-6-66-2-2-22-2-2-25----------------------|
E|-4-4-44-4-4-44-0-0-00-0-0-03----------------------|
"......I am so high.."

Prechorus (clean)
           -P.M.- 
e|------------------||
B|------------------||
G|------------------|| 
D|--5-57-7---999----|| (Add Distortion on palm muted chord here)
A|--5-57-7---999----||  
E|--3-35-5---777----||
[ Tab from: http://www.guitartabs.cc/tabs/k/kroeger_chad/hero_tab_ver_5.html ]
Chorus (Distortion)
e|----------------------------|
B|----------------------------|
G|----------------------------| 
D|-------------------5-7-9----|
A|-------------------5-7-9----|  
E|-------------------3-5-7----|
"And they say that a.."

Solo
e|-------------------------------------------------------|
B|-------------------------------------------------------|
G|-------------------------------------------------------| 
D|-------------------------------------------------------|
A|--5p4h5p4h5p4p2-5p4h5p4h5p4p0-22--344--9p7h9p7h9p7p5---|  
E|-------------------------------------------------------|

e|-------------------------|
B|-------------------------|
G|-----------------4-------| 
D|-----------------4-------|
A|--9p7h9p7h9p7p4--2-------|  
E|-------------------------|

Thats the Jist of it, if anyone can figure out the bridge, 
lemme know, Feel free to send email/corrections/suggestions
the_contradiction@hotmail.com

-Jokah
Comments