Kroeger Chad - Hero Chords & Tabs

 

Hero Chords & Tabs

Kroeger Chad Chords & Tabs

Version: 2 Type: Tab 1 rating
1 star 2 stars 3 stars 4 stars 5 stars
comments

Hero Tab

   
"Hero" 
Chad Kroeger & various artists from Saliva and Pearl Jam
Submitted by Joel Estes



TUNING:  Standard (Low to High) E A D G B E



Intro/Verse:  G#sus4  - G#minor  -  Esus4  -  E  -  E7  -  E

e                4         4          0       0      0     0
B                4         4          0       0      3     0
G                6         4          2       1      1     1
D                6         6          2       2      2     2
A                6         6          2       2      2     2
E                4         4          0       0      0     0



Bridge:       G          A         E    (Palm mute E before chorus)

e             3          0         0
B             3          2         0
G             4          2         1
D             5          2         2
A             5          0         2
E             3          X         0  

[ Tab from: http://www.guitartabs.cc/tabs/k/kroeger_chad/hero_tab_ver_2.html ]
Chorus:      G           A        B     (on second time)  E
 
E                                 2
B                                 4
G                                 4
D                                 4
A                                 2
E                                 X



Solo:  only use D and G strings


G---------------------------------------------------------------------
D---12-po-11-12-po-11-12-po-11--9~----12-po-11-12-po-11--12-po-11--7~-

G------------------11-po-9--11-po-9--11-po-9--7~~~--11-po-9--11-po-9--
D--7~---9~---11~~-----------------------------------------------------

G---11-po-9--6~---4~---6~----7~----9~-(9)\----------------------------
D---------------------------------------------------------------------


Interlude:

e-----------5--3----------------7--5--------------9--7-------------9--
B-----3-----------3---------5--------6-------- 7-------7--------7-----
G-------4----------------6------------------8----------------8--------
D--5------------------7----------------- 9----------------9-----------
A---------------------------------------------------------------------
E---------------------------------------------------------------------

not exact picking pattern..  but it's not hard to figure out

Repeat Chorus and the ending chord is:

       B    or   B

e      2         7
B      4         7
G      4         8
D      4         9
A      2         9
E      X         7


Enjoy!  any death threats or wantings of mad lovemaking for 
the posting of this song email me at 

AcousticSoup@aol.com

Comments