Kristin Hersh - Your Dirty Answer Chords & Tabs

 

Your Dirty Answer Chords & Tabs

Kristin Hersh Chords & Tabs

Version: 1 Type: Tab 0 ratings
1 star 2 stars 3 stars 4 stars 5 stars
comments

Your Dirty Answer Tab

   
-------------------------------------------------------------------------------
		Your dirty answer - Kristin Hersh ( Sunny Border Blue )
-------------------------------------------------------------------------------
Tabbed by: j.a.l
Email: j.a.l@free.fr

Tuning: Std

**********************
Intro X3 : 
1st time only one D (A5) ; * notes played 1 octave down by basse
e-
B-
G---------5-------------3-
D-------7-------------5---
A-5*-5*-------5*\(3)*-----
e-

RIFF A X2 : (00:10),
let strings ring, lots of ghost notes, open A played by guitar 2 indeed
e-
B-----5-------5-------3-------3---
G---5---5---5---5---2---2---2---2-
D-7-------5-------4-------5-------
A-0-
e-

**********************
RIFF 1 X1 : (00:23)
e-
B---------2-------|--------/5----------------------    |
G-----2-----2---2-|-----2-----5------------/4------    |
D---2---2-----2---|---2---2-----5-------4-----5--(5) x2|
A-0---------------|-0------------(3)--4---4-----5--    |
E-----------------|-----------------2--------------    |

e-
B---------2------------------------------/5--------------------------------2-------
G-----2-----2---2--------/4-----------2-----5------------/4------------2-----2---2-
D---2---2-----2-------4-----5--(5)--2---2-----5-------4-----5--(5)---2---2-----2---
A-0-----------------4---4-----5---0------------(3)--4---4-----5----0---------------
E-----------------2-------------------------------2--------------------------------
[ Tab from: http://www.guitartabs.cc/tabs/k/kristin_hersh/your_dirty_answer_tab.html ]
e-
B-|----------------------|---------2------------------------
G-|----------------------|-----2-----2---2--------/4--------
D-|----------------------|---2---2-----2-------4-----5------
A-|-5-5-5-7--7-7-7-5--x2-|-0-----------------4---4-----5----
E-|-3-3-3-5--5-5-5-3-----|-----------------2------------(3)-

*********************
RIFF 2 X1 ( X8 ) : (01:04)
There're 3 guitars :

1 : acoustic, classic alt picking, with some open string while changes, here just chords
e--x--0-----0---3-
B--3--1-----1---3-
G--2--2-----0---0- x8
D--0--3-----2---0-
A--0--x-----3---2-
E--x--x-----0---3-
|
2 : low elect + disto,
e--
B--7--10----12--5-
G--7--10----12--5- x8
D--7--10----12--5-
A--5--8-----10--3-
G--
|
3 : elect bright + slight tremolo
e-
B----------6----------|-------8-|-------8-|--------
G-------------------7-|---5-----|---5-----|---5---7 X5 ( last bar )
D--------7--------9---|-7---9---|-7---9---|-7---9--
A-
e-

*******************
RIFF 1 X1 : (01:50)

*******************
RIFF 2 (02:34) 3 guitars
same for guitar 1 ( acoustic ) riff X22 ( than leave )

guitar 2 :
e-
B-
G-(7)---7-----(10)----10------(5)---5-----------
D--7--7---7-/--10--10----10-\--5--5---5-5---5--- X27 ( 21 + 1 + 5 )
A--5-----------8---------------3--------5-5---5-
E---------------------------------------3-------

guitar 3 : elect bright + slight tremolo X7 ( all riff ) ( guitar 2 X21 )
e-
B---------------------------6---------------------8-|-------8-|---------|
G---------------------------------------------------|---5-----|---5---7-|
D-------------------------7---------------------9---|-7---9---|-7---9---|
A-
e-

( 04:56)
guitar 3 : ( elect bright ) change to :
e-
B-
G------9---7---5-7-|-------|-(5)p7-----| X3 ( last bar )
D-
A-
e-
Comments