Kristian Leontiou - Love Is All I Need Chords & Tabs

 

Love Is All I Need Chords & Tabs

Kristian Leontiou Chords & Tabs

Version: 1 Type: Tab 0 ratings
1 star 2 stars 3 stars 4 stars 5 stars
comments

Love Is All I Need Tab

-------------------------------------------------------------------------------
			     Love is all i need - Kristian Leontiou
-------------------------------------------------------------------------------
Tabbed by: Fady g. Masoud	
Email:fadymasoud@hotmail.com

Tuning: normal





(intro)
e|--------3---------3-----------3-----------3-----------3-----------3--------|
B|-----1-----1---1-----1-----1-----1-----1-----1-----------------------------|
G|---------------------------------------------------3-----3-----3-----3-----|
D|------------------------0-----------0-----------1-----------1--------------|
A|--3-----------3------------------------------------------------------------|
E|---------------------------------------------------------------------------|

e|--------4-----3-----1------------------------------------------------------|
B|-----------1-----1-----1--------4-----------4-----------4------------3-----|
G|-----1------------------------------------------------------------3-----3--|
D|--3--------------------------6-----6-----6-----6-----6-----6---------------|
A|---------------------------------------------------------------1-----------|
E|--------------------------4-----------4-----------4------------------------|

e|---------------------------------------------------------------------------|
B|--------4-----------4-----------4-----------4------------------------------|
G|-----0-----0-----0-----0-----0-----0-----0-----0---------------------------|
D|---------------------------------------------------------------------------|
A|--3-----------3-----------3-----------3------------------------------------|
E|---------------------------------------------------------------------------|
 

verse 1
e|--------3---------3-----------3-----------3-----------3-----------3--------|
B|-----1-----1---1-----1-----1-----1-----1-----1-----------------------------|
G|---------------------------------------------------3-----3-----3-----3-----|
D|------------------------0-----------0-----------1-----------1--------------|
A|--3-----------3------------------------------------------------------------|
E|---------------------------------------------------------------------------|
             Come  the      evening      in   the    silence it will always 
e|--------4-----3-----1------------------------------------------------------|
B|-----------1-----1-----1--------4-----------4-----------4------------3-----|
G|-----1------------------------------------------------------------3-----3--|
D|--3--------------------------6-----6-----6-----6-----6-----6---------------|
A|---------------------------------------------------------------1-----------|
E|--------------------------4-----------4-----------4------------------------|
    try      to catch    you                                     in a moment
[ Tab from: http://www.guitartabs.cc/tabs/k/kristian_leontiou/love_is_all_i_need_tab.html ]
e|--------3---------3-----------3-----------3-----------3-----------3--------|
B|-----1-----1---1-----1-----1-----1-----1-----1-----------------------------|
G|---------------------------------------------------3-----3-----3-----3-----|
D|------------------------0-----------0-----------1-----------1--------------|
A|--3-----------3------------------------------------------------------------|
E|---------------------------------------------------------------------------|
                 i recall    the    time i    tried   to  understant the
e|--------4-----3-----1------------------------------------------------------|
B|-----------1-----1-----1--------4-----------4-----------4------------3-----|
G|-----1------------------------------------------------------------3-----3--|
D|--3--------------------------6-----6-----6-----6-----6-----6---------------|
A|---------------------------------------------------------------1-----------|
E|--------------------------4-----------4-----------4------------------------|
    pain         of      angels                                  hear me
e|---------------------------------------------------------------------------|
B|--------1-----4-----1-----------------3-----------------------4------------|
G|-----0-----0-----0-----0--------3-----------3-----------------------5------|
D|-----------------------------0-----0-----0-----0--------6------------------|
A|--3-----------------------1--------------------------6-----6-----6-----6---|
E|--------------------------------------------------4------------------------|
    cry......                       ....                     ....
e|---------------------------------------------------------------------------|
B|---------------------------------------------------------------------------|
G|-----------5-----------7---------------------------------------------------|
D|--------6-----------8------------------------------------------------------|
A|-----6-----------8---------------------------------------------------------|
E|--4-----------6------------------------------------------------------------|
       ......
e|---------------------------------------------------------------------------|
B|--------1-----4-----1-----------------3-----------------------4------------|
G|-----0-----0-----0-----0--------3-----------3-----------------------5------|
D|-----------------------------0-----0-----0-----0--------6------------------|
A|--3-----------------------1--------------------------6-----6-----6-----6---|
E|--------------------------------------------------4------------------------|
    cry......                       ....                     ....
e|---------------------------------------------------------------------------|
B|---------------------------------------------------------------------------|
G|-----------5-----------7---------------------------------------------------|
D|--------6-----------8------------------------------------------------------|
A|-----6-----------8---------------------------------------------------------|
E|--4-----------6------------------------------------------------------------|
       ......

e|--------3---------3-----------3-----------3-----------3-----------3--------|
B|-----1-----1---1-----1-----1-----1-----1-----1-----------------------------|
G|---------------------------------------------------3-----3-----3-----3-----|
D|------------------------0-----------0-----------1-----------1--------------|
A|--3-----------3------------------------------------------------------------|
E|---------------------------------------------------------------------------|
             Deep    into    the    field   of    ashes       broken feeling 
e|--------4-----3-----1------------------------------------------------------|
B|-----------1-----1-----1--------4-----------4-----------4------------3-----|
G|-----1------------------------------------------------------------3-----3--|
D|--3--------------------------6-----6-----6-----6-----6-----6---------------|
A|---------------------------------------------------------------1-----------|
E|--------------------------4-----------4-----------4------------------------|
    i      remember                                              pull me under
e|--------3---------3-----------3-----------3-----------3-----------3--------|
B|-----1-----1---1-----1-----1-----1-----1-----1-----------------------------|
G|---------------------------------------------------3-----3-----3-----3-----|
D|------------------------0-----------0-----------1-----------1--------------|
A|--3-----------3------------------------------------------------------------|
E|---------------------------------------------------------------------------|
                Steal     the covers  as  the dust   falls   Empty movements 
e|--------4-----3-----1------------------------------------------------------|
B|-----------1-----1-----1--------4-----------4-----------4------------3-----|
G|-----1------------------------------------------------------------3-----3--|
D|--3--------------------------6-----6-----6-----6-----6-----6---------------|
A|---------------------------------------------------------------1-----------|
E|--------------------------4-----------4-----------4------------------------|
   leave     me         restless                                  hear me
e|---------------------------------------------------------------------------|
B|--------1-----4-----1-----------------3-----------------------4------------|
G|-----0-----0-----0-----0--------3-----------3-----------------------5------|
D|-----------------------------0-----0-----0-----0--------6------------------|
A|--3-----------------------1--------------------------6-----6-----6-----6---|
E|--------------------------------------------------4------------------------|
    cry......                       ....                     ....
e|---------------------------------------------------------------------------|
B|---------------------------------------------------------------------------|
G|-----------5-----------7---------------------------------------------------|
D|--------6-----------8------------------------------------------------------|
A|-----6-----------8---------------------------------------------------------|
E|--4-----------6------------------------------------------------------------|
       ......
e|---------------------------------------------------------------------------|
B|--------1-----4-----1-----------------3-----------------------4------------|
G|-----0-----0-----0-----0--------3-----------3-----------------------5------|
D|-----------------------------0-----0-----0-----0--------6------------------|
A|--3-----------------------1--------------------------6-----6-----6-----6---|
E|--------------------------------------------------4------------------------|
    cry......                       ....                     ....
e|---------------------------------------------------------------------------|
B|---------------------------------------------------------------------------|
G|-----------5-----------7---------------------------------------------------|
D|--------6-----------8------------------------------------------------------|
A|-----6-----------8---------------------------------------------------------|
E|--4-----------6------------------------------------------------------------|
       ......
e|--6--6--6-6-6-6-6----4--4--4--4--4--4--4--4--4--4--4--4--------------------|
B|--8--8--6-6-6-6-6----4--4--4--4--4--4--4--4--4--4--4--4--------------------|
G|--8--8--7-7-7-7-7----5--5--5--5--5--5--5--5--5--5--5--5--------------------|
D|--8--8--8-8-8-8-8----6--6--6--6--6--6--6--6--6--6--6--6--------------------|
A|--6--6--8-8-8-8-8----6--6--6--6--6--6--6--6--6--6--6--6--------------------|
E|--6--6--6-6-6-6-6----4--4--4--4--4--4--4--4--4--4--4--4--------------------|
    ohh   ooohhh       ohhh   love is all i need love is all i.....


e|--6--6--6-6-6-6-6----4--4--4--4--4--4--4--4--4--4--4--4--------------------|
B|--8--8--6-6-6-6-6----4--4--4--4--4--4--4--4--4--4--4--4--------------------|
G|--8--8--7-7-7-7-7----5--5--5--5--5--5--5--5--5--5--5--5--------------------|
D|--8--8--8-8-8-8-8----6--6--6--6--6--6--6--6--6--6--6--6--------------------|
A|--6--6--8-8-8-8-8----6--6--6--6--6--6--6--6--6--6--6--6--------------------|
E|--6--6--6-6-6-6-6----4--4--4--4--4--4--4--4--4--4--4--4--------------------|
    ohh   ooohhh       ohhh   love is all i need love is all i.....


rest of the vurses are the same but different words
Comments