Kristet Utseende - Quinna Chords & Tabs

 

Quinna Chords & Tabs

Kristet Utseende Chords & Tabs

Version: 1 Type: Tab 0 ratings
1 star 2 stars 3 stars 4 stars 5 stars
comments

Quinna Tab

QUINNA 
solo 2ggr 
vers några ggr.. -;) 
ref 4ggr 
solo 2ggr
vers några ggr till... 
ref 4ggr 
solo: 
e|--------------------------------------------| 
B|--------------------------------------------| 
G|-12-9-12-9-5-7-5-7---9---9---5-7-5-7--------|
D|----------------------9---9-----------------| 
A|--------------------------------------------| 
E|--------------------------------------------| 

vers: 
e|---------------------------|
B|---------------------------| 
G|---------------------------| 
D|-9-9-9--9-9-9--9-9-9--5-7--| 
A|-7-7-7--7-7-7--7-7-7--3-5--| 
E|---------------------------| 

ref: 
e|-------------------| 
B|-------------------| 
G|-------------------| 
D|-9-7-----9-7-------| 
A|-7-5--7--7-5--9----| 
E|-------5--------7--|
[ Tab from: http://www.guitartabs.cc/tabs/k/kristet_utseende/quinna_tab.html ]
Comments