Kristen Hersh - Me And My Charms Chords & Tabs

 

Me And My Charms Chords & Tabs

Kristen Hersh Chords & Tabs

Version: 1 Type: Tab 0 ratings
1 star 2 stars 3 stars 4 stars 5 stars
comments

Me And My Charms Tab

   
Me and My Charms
Kristen Hersh
Tabber: bighabit69@iamwasted.com


intro:

e ------0-----------0-----------------
B --------0-----------0--------------- 
G ----0-----0-----0-----0-----0-----0-
D --5-----------7-----------9-----7---
A 3-----------5-----------7-----5-----
E ------------------------------------

e ------0-----------0-----------0----------------- 
B --------0-----------0-----------0--------------- 
G ----0-----0-----0-----0-----0-----0-----0-----0- 
D --5-----------7-----------9-----------12----14-- 
A 3-----------5-----------7-----------10----12---- 
E ------------------------------------------------ 

(intro repeated)


e ------0-----------0-----------------
B --------0-----------0--------------- 
G ----0-----0-----0-----0-----0-----0-
D --4-----------7-----------9-----7---
A 2-----------5-----------7-----5-----
E ------------------------------------
      You can come back,      When you 
  
e ------0-----------0-----------0----------------- 
B --------0-----------0-----------0--------------- 
G ----0-----0-----0-----0-----0-----0-----0-----0-
D --4-----------7-----------9-----------12----14-- 
A 2-----------5-----------7-----------10----12---- 
E ------------------------------------------------ 
  want,   Just know that I'll be here,
 
e ------0-----------0-----------------
B --------0-----------0--------------- 
G ----0-----0-----0-----0-----0-----0-
D --4-----------7-----------9-----7---
A 2-----------5-----------7-----5-----
E ------------------------------------
      I haven't left this step,

e ------0-----------0-----------0----------------- 
B --------0-----------0-----------0--------------- 
G ----0-----0-----0-----0-----------0-----------0- 
D --4-----------2-------------2-----------0---0--- 
A 2-----------0-------------2-----------2---0----- 
E ------------------------0-----------3----------- 
      And when the lights go out, 
                              I pick the angel up,

e ------0-----------0-----------0----------------- 
B --------0-----------0-----------0--------------- 
G ----0-----0-----0-----0-----0-----0-----------0- 
D --5-----------7-----------9-------------0---0--- 
A 3-----------5-----------7-------------2---0----- 
E ------------------------------------3----------- 
      I only  have two    hands,

e ------0-----------0-----------------
B --------0-----------0--------------- 
G ----0-----0-----0-----0-----0-----0-
D --4-----------7-----------9-----7---
A 2-----------5-----------7-----5-----
E ------------------------------------
      Is she  here?
  
e ------0-----------0-----------0----------------- 
B --------0-----------0-----------0--------------- 
G ----0-----0-----0-----0-----0-----0-----0-----0-
D --4-----------7-----------9-----------12----14-- 
A 2-----------5-----------7-----------10----12---- 
E ------------------------------------------------
      Is she  here    right now?

e ------0-----------0-----------0----------------- 
B --------0-----------0-----------0--------------- 
G ----0-----0-----0-----0-----------0-----------0- 
D --4-----------2-------------2-----------0---0--- 
A 2-----------0-------------2-----------2---0----- 
E ------------------------0-----------3----------- 
      Drive her off,  Don't bother to call,

e ------0-----------0-0---------0----------------- 
B --------0------------0----------0--------------- 
G ----0-----0-----0-----0-----0-----0-----------0- 
D --5-----------7-----------9-------------0---0--- 
A 3-----------5-----------7-------------2---0----- 
E ------------------------------------3----------- 
  I'm checking out    to- day,

e ------0-----------0-0---------0-----0-0-0-0-0-0- 
B --------0------------0----------0---0-0-0-0-0-0- 
G ----0-----0-----0-----0-----0-----0-0-0-0-0-0-0- 
D --5-----------7-----------9---------5-5-5-7-7-7- 
A 3-----------5-----------7-----------5-5-5-7-7-7- 
E ------------------------------------3-3-3-5-5-5- 

e 0-0-0-0-0-0-0-0-0-0-0-0-0-0-0-0-0-0-0-0-0-0-0-0-
B 0-0-0-0-0-0-8-8-8-8-8-8-0-0-0-0-0-0-0-0-0-0-0-0-
G 0-0-0-0-0-0-0-0-0-0-0-0-0-0-0-0-0-0-0-0-0-0-0-0-
D 5-5-5-5-5-5-7-7-7-7-7-7-9-9-9-9-9-9-5-5-5-7-7-7-
A 3-3-3-3-3-3-5-5-5-5-5-5-7-7-7-7-7-7-5-5-5-7-7-7-
e x-x-x-x-x-x-x-x-x-x-x-x-x-x-x-x-x-x-3-3-3-5-5-5-
  Me and my   charms,

(repeated)

e 0-0-0-0-0-0-0-0-0-0-0-0-0-0-0-0-0-0-0-0-0-0-0-0-
B 0-0-0-0-0-0-8-8-8-8-8-8-0-0-0-0-0-0-0-0-0-0-0-0-
G 0-0-0-0-0-0-0-0-0-0-0-0-0-0-0-0-0-0-0-0-0-0-0-0-
D 5-5-5-5-5-5-7-7-7-7-7-7-9-9-9-9-9-9-5-5-5-5-5-5-           
A 3-3-3-3-3-3-5-5-5-5-5-5-7-7-7-7-7-7-3-3-3-3-3-3-
e x-x-x-x-x-x-x-x-x-x-x-x-x-x-x-x-x-x-x-x-x-x-x-x-
          When I kiss(take) the angel,

e 0-0-0-0-0-0-0-0-0-0-0-0-0-0-0-0-0-0-0-0-0-0-0-0-
B 0-0-0-0-0-0-8-8-8-8-8-8-0-0-0-0-0-0-0-0-0-0-0-0-
G 0-0-0-0-0-0-0-0-0-0-0-0-0-0-0-0-0-0-0-0-0-0-0-0-
D 5-5-5-5-5-5-7-7-7-7-7-7-9-9-9-9-9-9-5-5-5-5-5-5-           
A 3-3-3-3-3-3-5-5-5-5-5-5-7-7-7-7-7-7-3-3-3-3-3-3-
e x-x-x-x-x-x-x-x-x-x-x-x-x-x-x-x-x-x-x-x-x-x-x-x-
  I have a taste(piece) of you,

(last two lines repeated, substituting bracketed words)

e 0-0-0-0-0-0-0-0-0-0-0-0-0-0-0-0-0-0-
B 0-0-0-0-0-0-8-8-8-8-8-8-0-0-0-0-0-0-
G 0-0-0-0-0-0-0-0-0-0-0-0-0-0-0-0-0-0-
D 5-5-5-5-5-5-7-7-7-7-7-7-9-9-9-5-5-5-           
A 3-3-3-3-3-3-5-5-5-5-5-5-7-7-7-3-3-3-
e x-x-x-x-x-x-x-x-x-x-x-x-x-x-x-x-x-x-
  I have a    piece,

(played three times)

e ------0-----------0-----------------
B --------0-----------0--------------- 
G ----0-----0-----0-----0-----0-----0-
D --5-----------7-----------9-----7---
A 3-----------5-----------7-----5-----
E ------------------------------------

e ------0-----------0-----------0----------------- 
B --------0-----------0-----------0--------------- 
G ----0-----0-----0-----0-----0-----0-----0-----0- 
D --5-----------7-----------9-----------12----14-- 
A 3-----------5-----------7-----------10----12---- 
E ------------------------------------------------
[ Tab from: http://www.guitartabs.cc/tabs/k/kristen_hersh/me_and_my_charms_tab.html ]
e ------0-----------0-----------------
B --------0-----------0--------------- 
G ----0-----0-----0-----0-----0-----0-
D --4-----------7-----------9-----7---
A 2-----------5-----------7-----5-----
E ------------------------------------
      You can come back,       
  
e ------0-----------0-----------0----------------- 
B --------0-----------0-----------0--------------- 
G ----0-----0-----0-----0-----0-----0-----0-----0-
D --4-----------7-----------9-----------12----14-- 
A 2-----------5-----------7-----------10----12---- 
E ------------------------------------------------
      I haven't left you yet,

e ------0-----------0-----------0----------------- 
B --------0-----------0-----------0--------------- 
G ----0-----0-----0-----0-----------0-----------0- 
D --4-----------2-------------2-----------0---0--- 
A 2-----------0-------------2-----------2---0----- 
E ------------------------0-----------3----------- 
      And when the lights go out, 
                              I pick the angel up,

e ------0-----------0-0---------0----------------- 
B --------0------------0----------0--------------- 
G ----0-----0-----0-----0-----0-----0-----------0- 
D --5-----------7-----------9-------------0---0--- 
A 3-----------5-----------7-------------2---0----- 
E ------------------------------------3----------- 
      I only  have two left feet,

e ------0-----------0-0---------0----------------- 
B --------0------------0----------0--------------- 
G ----0-----0-----0-----0-----0-----0-----------0- 
D --5-----------7-----------9-------------0---0--- 
A 3-----------5-----------7-------------2---0----- 
E ------------------------------------3----------- 
      All I   have in my  hands,

e ------0-----------0-0---------0-----0-0-0-0-0-0- 
B --------0------------0----------0---0-0-0-0-0-0- 
G ----0-----0-----0-----0-----0-----0-0-0-0-0-0-0- 
D --5-----------7-----------9---------5-5-5-7-7-7- 
A 3-----------5-----------7-----------5-5-5-7-7-7- 
E ------------------------------------3-3-3-5-5-5-
       All I   have in my  hands,

e 0-0-0-0-0-0-0-0-0-0-0-0-0-0-0-0-0-0-0-0-0-0-0-0-
B 0-0-0-0-0-0-8-8-8-8-8-8-0-0-0-0-0-0-0-0-0-0-0-0-
G 0-0-0-0-0-0-0-0-0-0-0-0-0-0-0-0-0-0-0-0-0-0-0-0-
D 5-5-5-5-5-5-7-7-7-7-7-7-9-9-9-9-9-9-5-5-5-7-7-7-
A 3-3-3-3-3-3-5-5-5-5-5-5-7-7-7-7-7-7-5-5-5-7-7-7-
e x-x-x-x-x-x-x-x-x-x-x-x-x-x-x-x-x-x-3-3-3-5-5-5-
  Me and my   charms,

(repeated)

e 0-0-0-0-0-0-0-0-0-0-0-0-0-0-0-0-0-0-0-0-0-0-0-0-
B 0-0-0-0-0-0-8-8-8-8-8-8-0-0-0-0-0-0-0-0-0-0-0-0-
G 0-0-0-0-0-0-0-0-0-0-0-0-0-0-0-0-0-0-0-0-0-0-0-0-
D 5-5-5-5-5-5-7-7-7-7-7-7-9-9-9-9-9-9-5-5-5-5-5-5-           
A 3-3-3-3-3-3-5-5-5-5-5-5-7-7-7-7-7-7-3-3-3-3-3-3-
e x-x-x-x-x-x-x-x-x-x-x-x-x-x-x-x-x-x-x-x-x-x-x-x-
          When I kiss the angel,

e 0-0-0-0-0-0-0-0-0-0-0-0-
B 0-0-0-0-0-0-8-8-8-8-8-8-
G 0-0-0-0-0-0-0-0-0-0-0-0-
D 5-5-5-5-5-5-7-7-7-7-7-7-
A 3-3-3-3-3-3-5-5-5-5-5-5-
e x-x-x-x-x-x-x-x-x-x-x-x-
  I have a    taste of

e 0-0-0-0-0-0-0-0-0-0-0-0-0-0-0-0-0-0-0-0-0-0-0-0-
B 0-0-0-0-0-0-8-8-8-8-8-8-0-0-0-0-0-0-0-0-0-0-0-0-
G 0-0-0-0-0-0-0-0-0-0-0-0-0-0-0-0-0-0-0-0-0-0-0-0-
D 5-5-5-5-5-5-7-7-7-7-7-7-9-9-9-9-9-9-5-5-5-7-7-7-
A 3-3-3-3-3-3-5-5-5-5-5-5-7-7-7-7-7-7-5-5-5-7-7-7-
e x-x-x-x-x-x-x-x-x-x-x-x-x-x-x-x-x-x-3-3-3-5-5-5-
  Me and my   charms,

e 0-0-0-0-0-0-0-0-0-0-0-0-0-0-0-0-0-0-0-0-0-0-0-0-
B 0-0-0-0-0-0-8-8-8-8-8-8-0-0-0-0-0-0-0-0-0-0-0-0-
G 0-0-0-0-0-0-0-0-0-0-0-0-0-0-0-0-0-0-0-0-0-0-0-0-
D 5-5-5-5-5-5-7-7-7-7-7-7-9-9-9-9-9-9-5-5-5-5-5-5-           
A 3-3-3-3-3-3-5-5-5-5-5-5-7-7-7-7-7-7-3-3-3-3-3-3-
e x-x-x-x-x-x-x-x-x-x-x-x-x-x-x-x-x-x-x-x-x-x-x-x-
  Me and my   charms,     Down on the ground,

e 0-0-0-0-0-0-0-0-0-0-0-0-0-0-0-0-0-0-
B 0-0-0-0-0-0-8-8-8-8-8-8-0-0-0-0-0-0-
G 0-0-0-0-0-0-0-0-0-0-0-0-0-0-0-0-0-0-
D 5-5-5-5-5-5-7-7-7-7-7-7-9-9-9-5-5-5-           
A 3-3-3-3-3-3-5-5-5-5-5-5-7-7-7-3-3-3-
e x-x-x-x-x-x-x-x-x-x-x-x-x-x-x-x-x-x-
          You can't leave me now

(repeated)

e 0-0-0-0-0-0-0-0-0-0-0-0-0-0-0-0-0-0-
B 0-0-0-0-0-0-8-8-8-8-8-8-0-0-0-0-0-0-
G 0-0-0-0-0-0-0-0-0-0-0-0-0-0-0-0-0-0-
D 5-5-5-5-5-5-7-7-7-7-7-7-9-9-9-5-5-5-           
A 3-3-3-3-3-3-5-5-5-5-5-5-7-7-7-3-3-3-
e x-x-x-x-x-x-x-x-x-x-x-x-x-x-x-x-x-x-
      I haven't left you yet   

e ------0-----------0-0---------0----------------- 
B --------0------------0----------0--------------- 
G ----0-----0-----0-----0-----0-----0-----------0- 
D --5-----------7-----------9-------------0---0--- 
A 3-----------5-----------7-------------2---0----- 
E ------------------------------------3----------- 

e ------0-----------0-0---------0-----0-0-0-0-0-0- 
B --------0------------0----------0---0-0-0-0-0-0- 
G ----0-----0-----0-----0-----0-----0-0-0-0-0-0-0- 
D --5-----------7-----------9---------5-5-5-7-7-7- 
A 3-----------5-----------7-----------5-5-5-7-7-7- 
E ------------------------------------3-3-3-5-5-5-
       All I   have in my  hands,

e 0-0-0-0-0-0-0-0-0-0-0-0-0-0-0-0-0-0-0-0-0-0-0-0-
B 0-0-0-0-0-0-8-8-8-8-8-8-0-0-0-0-0-0-0-0-0-0-0-0-
G 0-0-0-0-0-0-0-0-0-0-0-0-0-0-0-0-0-0-0-0-0-0-0-0-
D 5-5-5-5-5-5-7-7-7-7-7-7-9-9-9-9-9-9-5-5-5-7-7-7-
A 3-3-3-3-3-3-5-5-5-5-5-5-7-7-7-7-7-7-5-5-5-7-7-7-
e x-x-x-x-x-x-x-x-x-x-x-x-x-x-x-x-x-x-3-3-3-5-5-5-
  Me and my   charms,

(repeated)

e 0-0-0-0-0-0-0-0-0-0-0-0-0-0-0-0-0-0-0-0-0-0-0-0-
B 0-0-0-0-0-0-8-8-8-8-8-8-0-0-0-0-0-0-0-0-0-0-0-0-
G 0-0-0-0-0-0-0-0-0-0-0-0-0-0-0-0-0-0-0-0-0-0-0-0-
D 5-5-5-5-5-5-7-7-7-7-7-7-9-9-9-9-9-9-5-5-5-5-5-5-           
A 3-3-3-3-3-3-5-5-5-5-5-5-7-7-7-7-7-7-3-3-3-3-3-3-
e x-x-x-x-x-x-x-x-x-x-x-x-x-x-x-x-x-x-x-x-x-x-x-x-
          When I kiss(take) the angel,

e 0-0-0-0-0-0-0-0-0-0-0-0-0-0-0-0-0-0-0-0-0-0-0-0-
B 0-0-0-0-0-0-8-8-8-8-8-8-0-0-0-0-0-0-0-0-0-0-0-0-
G 0-0-0-0-0-0-0-0-0-0-0-0-0-0-0-0-0-0-0-0-0-0-0-0-
D 5-5-5-5-5-5-7-7-7-7-7-7-9-9-9-9-9-9-5-5-5-5-5-5-           
A 3-3-3-3-3-3-5-5-5-5-5-5-7-7-7-7-7-7-3-3-3-3-3-3-
e x-x-x-x-x-x-x-x-x-x-x-x-x-x-x-x-x-x-x-x-x-x-x-x-
  I have a taste(piece) of you,

(last two lines repeated, substituting bracketed words)

e 0-0-0-0-0-0-0-0-0-0-0-0-0-0-0-0-0-0-
B 0-0-0-0-0-0-8-8-8-8-8-8-0-0-0-0-0-0-
G 0-0-0-0-0-0-0-0-0-0-0-0-0-0-0-0-0-0-
D 5-5-5-5-5-5-7-7-7-7-7-7-9-9-9-5-5-5-           
A 3-3-3-3-3-3-5-5-5-5-5-5-7-7-7-3-3-3-
e x-x-x-x-x-x-x-x-x-x-x-x-x-x-x-x-x-x-
  I have a    piece,

(played three times)

e ------0-----------0---------0------------------- 
B --------0-----------0--------------------------- 
G ----0-----0-----0-----0------------------------- 
D --5-----------7-----------9---9-9/10-10--------- 
A 3-----------5-----------7-------7/12-12--------- 
E ------------------------------------------------
Comments