Kristen Barry - Ordinary Life Chords & Tabs

 

Ordinary Life Chords & Tabs

Kristen Barry Chords & Tabs

Version: 1 Type: Tab 0 ratings
1 star 2 stars 3 stars 4 stars 5 stars
comments

Ordinary Life Tab

   
KRISTEN BARRY - Ordinary Life.
Tabbed by arun@firemail.de.
  
_______________________

Kristen Barry - Ordinary Life

Tabbed by Matt + V. Stolos
_______________________


Intro/verse:

|----------------|
|----------------|
|--2----5---5-5--|
|--2----3---4-5--|
|--0----3---3-3--|
|----------------|

|----------------|
|--2-------------|
|--2----5---5-5--|
|--0----5---4-5--|
|-------3---3-3--|
|----------------|


Chorus:

Am C D
[ Tab from: http://www.guitartabs.cc/tabs/k/kristen_barry/ordinary_life_tab.html ]
(well, the last chord could be Dsus2 as well)


Interlude: <--- I'm unsure of this one, been too long...

|---------------------|
|--1----1----3--------|
|--0----2----2--------|
|--2----2----0--------|
|--3----0----X--------|
|------------3--------|


Outro:

Am C


_______________________

Um, that's it, enjoy.
Send any corrections to suicide_dreams@hotmail.com
_______________________


 
:: Ultimate Guitar Archive :: 
http://www.ultimate-guitar.com 

Comments