Kreator - Total Death Chords & Tabs

 

Total Death Chords & Tabs

Kreator Chords & Tabs

Version: 1 Type: Tab 0 ratings
1 star 2 stars 3 stars 4 stars 5 stars
comments

Total Death Tab

Artist: Kreator
Song: Total Death
Album: Endless Pain
Year: 1985

Tabbed by Jori Merilainen, send any corrections, suggestions
or questions to: Thrasher_0682@yahoo.com
----------------------------------------------------------------------------
Standard tuning: EADGBe

1) Intro riff:
NOTE: I play this slightly differently than noted here, but
that would be IMPOSSIBLE to write down, so this is the closest
I could get. Use fast tremolo picking.
G|-----------------------------|
D|----------------00223003000--|
A|---------0002233-------------|
E|--0002233--------------------|
[ Tab from: http://www.guitartabs.cc/tabs/k/kreator/total_death_tab.html ]
2) Verse riff:
G|----------------------------------|
D|------------------4--------5-4----|
A|--2---------------2--------3-2-5--|
E|--0-00000000000000--000000-----3--|
      ..............  ......

3) Chorus: "Try to run and hide..."
G|---------------------------|
D|--7---9---5---5-4-4-5-4-4--|
A|--5---7---3---3-2-2-3-2-2--|
E|---------------------------|

4a) Middle-section:
G|-----------------------------------|
D|--------------4-5-------------4-5--|
A|--------------2-3-------------2-3--|
E|--0-000-000-0-----0-000-000-0------|
    . ... ... .     . ... ... .
4b)
G|--------------4-5-------------4-5--|
D|--------------2-3-------------2-3--|
A|--0-000-000-0-----0-000-000-0------|
E|--.-...-...-.-----.-...-...-.------|

THE END.
Comments