Kreator - Phobia Chords & Tabs

 

Phobia Chords & Tabs

Kreator Chords & Tabs

Version: 2 Type: Tab 0 ratings
1 star 2 stars 3 stars 4 stars 5 stars
comments

Phobia Tab

   
Transcribed by:kreatorrules

( )=link note
.=pm

Tempo=200

Riff A

---------------------|---------------------|
---------------------|---------------------|
---------------------|---------------------|
---99-9-9-9-99-9-9-9-|-99-9-9-9------5---5-|
---77-7-7-7-77-7-7-7-|-77-7-7-7------3---3-|
---00-0-0-0-00-0-0-0-|-00-0-0-0----0---0---|

Riff B

---------------------|-------------------|
---------------------|-------------------|
---------------------|-------------------|
---------------------|-------------5---5-|
---22-2-2-2-22-2-2-2-|-22-2-2-2----3---3-|
---00-0-0-0-00-0-0-0-|-00-0-0-0--0---0---|

Riff C

-------------------|--------------------|
-------------------|--------------------|
-------------------|--------------------|
-------------------|--------------------|
---4-4-4-4-5-4-4-7-|--(7)-7-7-7-7-7-5-4-|
---2-2-2-2-3-2-2-5-|--(5)-5-5-5-5-5-3-2-|

Riff D
[ Tab from: http://www.guitartabs.cc/tabs/k/kreator/phobia_tab_ver_2.html ]
-------------------|-----------------|
-------------------|-----------------|
-------------------|-----------------|
-------------------|-----------5---5-|
--2-\-\-\-\-\-\-\--|-\-\-\-\---3---3-|
--0----------------|---------0---0---|

Riff E

----------|-----------|
----------|-----------|
----------|-----------|
------4-5-|-----4-5---|
--2-2-2-3-|-2-2-2-3-3-|
--0-0-----|-0-0-----1-|

Riff F

----|---|---|---------|---|-----|---|-----|
----|---|---|---------|---|-----|---|-----|
----|---|---|---------|---|-----|---|-----|
----|---|---|---------|---|-----|---|-----|
--2-|-5-|-4-|-(4)-2-4-|-5-|-7-5-|-4-|-(4)-|
--0-|-3-|-2-|-(2)-0-2-|-3-|-5-3-|-2-|-(2)-|



Play Riff A 4 times
Play Riff B 3 times
Play Riff C 1 time
Play Riff D 3 times
Play Riff C 1 time
Play Riff B 3 times
Play Riff C 1 time
Play Riff E 2 times
Play Riff F 2 times
Play Riff D 3 times
Play Riff C 1 time
Play Riff B 3 times
Play Riff C 1 time
Play Riff E 2 times
Play Riff F 2 times
Play Riff A 4 times
Play Riff B 3 times
Play Riff C 1 time
Play Riff B 3 times
Play Riff C 1 time
Play Riff B 3 times
Play Riff C 1 time
Play Riff E 2 times
Play Riff F 2 times
Play Riff B 3 times
Play Riff C 1 time


Enjoy Kreator's best song!
Comments