Kreator - Phobia Chords & Tabs

 

Phobia Chords & Tabs

Kreator Chords & Tabs

Version: 1 Type: Tab 0 ratings
1 star 2 stars 3 stars 4 stars 5 stars
comments

Phobia Tab

   
BY: xTOXINx
xTR4UM4x@netscape.com


Band:  Kreator
Album: Outcast
Song:  Phobia

Drop D Tuning (Tune low E 1 Step Down to D)

.-Palm Mute

Riff 1:

e|-------------------------|
b|-------------------------|
g|-------------------------|
d|---------------------3-3-|
a|-0-----0-----0-------1-1-|
D|-0-00000-00000-00000-----| (7X)
pm   ....  ....  ....


riff 2:

e|-------------------------------|
b|-------------------------------|
g|-------------------------------|
d|-------------------------------|
a|-2-2-2-2-3-2-5-5-5-5-5-5-3-2-0-|
D|-2-2-2-2-3-2-5-5-5-5-5-5-3-2-0-|

riff 3 (verse)

is there something after you :
e|------------------------------|
b|------------------------------|
g|------------------------------|
d|---3---3------3-3-------3---3-|
a|-0-1-0-1-0----1-1-0---0-1-0-1-|
D|-0---0---0--------0---0---0---|

Then play Riff 2 and Riff 1
[ Tab from: http://www.guitartabs.cc/tabs/k/kreator/phobia_tab.html ]
riff 4:
e|-------------------------------|
b|-------------------------------|
g|-------------------------------|
d|-------2-3--------------2-3----|
a|-0-0-0-0-1--------0-0-0-0-1-2--|
D|-0-0-0------------0-0-0-----2--|
pm . . .            . . .

Riff 5: 

Guitar 1
e|-5-5-5-5-5-5-5-5-5-4-----2-4-5-5-5-5-7-7-7-5-4--------|
b|------------------------------------------------------|
g|------------------------------------------------------|
d|------------------------------------------------------|
a|------------------------------------------------------|
D|------------------------------------------------------|
 
 						    (2X)
 |Guitar 2
e|------------------------------------------------------|
b|------------------------------------------------------|
g|------------------------------------------------------|
d|-7--------7-7---7-7-6-----4-6-7---7-9------7-6----4-6-|
a|-7--------7-7---7-7-6-----4-6-7---7-9------7-6----4-6-|
D|-7--------7-7---7-7-6-----4-6-7---7-9------7-6----4-6-|


Theres PHOBIA for Ya
Comments