Kreator - People Of The Lie Chords & Tabs

 

People Of The Lie Chords & Tabs

Kreator Chords & Tabs

Version: 1 Type: Tab 0 ratings
1 star 2 stars 3 stars 4 stars 5 stars
comments

People Of The Lie Tab

   
People Of The Lie

from the album 'Coma Of Souls'

 .
...
transcribed by
  Jani Ylikangas (jylikangas@yahoo.com)



Intro
e|-----------------------------------------------------------------------|
b|-----------------------------------------------------------------------|
g|-----------------------------------------------------------------------|
d|------6-2---2-3-----2---4-5---4-4-4-5---5---7----7-6-------------------|
a|--9-8-4-2---------5-----------2-2-2-3-----5------5-4----8-7------------|
E|--7-6---0-----------------------------------------------6-5------------|
    * * *                       * * *              
e|-----------------------------------------------------------------------|
b|-----------------------------------------------------------------------|
g|-----------------------------------------------------------------------|
d|--2---2-3-----2---4-5----4-4-4-5---5---7----7-6---2--------------------|
a|--2---------5------------2-2-2-3-----5------5-4---2--------------------|
E|--0-----------------------------------------------0--------------------|
                           * * *
Verse riff (When guitar 2 comes in play palm muted F5)
e|-----------------------------------------------------------------------|
b|-----------------------------------------------------------------------|
g|o---------------------------------------------------------------------o|
d|o--2-----2-----------------3s4---3---2--------------------------------o|
a|---2-----2-----------------1s2---3---2---------------------------------|
E|---0-0-0-0-0-0-0-0-0-0-0-0-----0-1---0-0-0-0-0-0-0-0-0-0-0-0-0-0-0-----|
       * *   * * * * * * * *     *       * * * * * * * * * * * * * *
Chorus
e|-----------------------------------------------------------------------|
b|-----------------------------------------------------------------------|
g|--------------------4--------------------------------------------------|
d|---3-2------5-------4------4---3---------------------------------------|
a|---3-2------5-------2------4---3---------------------------------------|
E|---1-0------3--------------2---1---------------------------------------|

Chords before the drum solo F#5, A5, G#5 and B5

Solo backing
e|-----------------------------------------------------------------------|
b|-----------------------------------------------------------------------|
g|o---------------------------------------------------------------------o|
d|o--5-----5-----------------6-5--6-5-----------------------------------o|
a|---5-----5-----------------4-3--6-5------------------------------------|
E|---3-3-3-3-3-3-3-3-3-3-3-3------4-3--3-3-3-3-3-3-3-3-3-3-3-3-3-3-------|
       * *   * * * * * * * *           * * * * * * * * * * * * * *

e|-----------------------------------------------------------------------|
b|-----------------------------------------------------------------------|
g|o---------------------------------------------------------------------o|
d|o--9-----9----------------10-9-10-9-----------------------------------o|
a|---9-----9-----------------8-7-10-9------------------------------------|
E|---7-7-7-7-7-7-7-7-7-7-7-7------8-7--7-7-7-7-7-7-7-7-7-7-7-7-7-7-------|
       * *   * * * * * * * *           * * * * * * * * * * * * * *

e|-----------------------------------------------------------------------|
b|-----------------------------------------------------------------------|
g|o---------------------------------------------------------------------o|
d|o--12----12----------------1312-1312----------------------------------o|
a|---12----12----------------1110-1312-----------------------------------|
E|---101010101010101010101010-----1110-1010101010101010101010101010------|
       * *   * * * * * * * *           * * * * * * * * * * * * * *

Interlude
e|-----------------------------------------------------------------------|
b|-----------------------------------------------------------------------|
g|o---------------------------------------------------------------------o|
d|o--------------------------------9------------------------------------o|
a|-------7-8-10-8-----7-8-10-8-8-7---------------------------------------|
E|---0-0----------0-0----------------------------------------------------|
     * *          * *

That should be close enough. This song kicks ass.

--------------------------------------------------------------------------

transcribed by
Aghis Theodoropoulos & August Vein (despariel@hotmail.com) Lots of thanks to Jani Ylikangas although his version of "People of the Lie" was very different...


Palm muting is designated by dots (.)
Slides are designated by dash lines (/)
Ghost notes/chords are in parentheses : (0)
Timing has been kept as best as possible...



Intro (two guitars):
e|---------------------------------|-------------------------------------------| 
B|---------------------------------|-------------------------------------------| 
G|-------------1-2-----1---3-4-----|--------5----5---7-------------------------| 
D|-4-3-6-2-----2-3---4-2---4-5-----|-4-4-4--5------5---5-4---------4-3---------| 
A|-2-1-4-2-----------5-------------|-2-2-2--3----------3-2---------2-1---------| 
E|-------0-------------------------|-----------------------0-0-0-0-----0-0-0-0-| 
  . . .                              . . .                 . . . .     . . . .

e|---------------------------------|-------------------------------------------| 
B|---------------------------------|-------------------------------------------|
G|-------------1--2------1---3-4---|-------5----5---7--------------------------| 
D|-4-3-6-2-----2--3---4--2---4-5---|-4-4-4-5------5---5-4---------2------------| 
A|-2-1-4-2------------5------------|-2-2-2-3----------3-2---------2------------| 
E|-------0-------------------------|----------------------0-0-0-0-0------------| 
   . . .                             . . .                . . . .      
            

e|-----------------|-----------------|
b|-----------------|-----------------|
g|-----------------|-----------------|
d|(2)--------------|(2)--------------|
a|(2)--------------|(2)--------------|
E|(0)--------------|(0)--------------|

Then play:
e|-----------------|-----------------|------------------|-----------------| 
B|-----------------|-----------------|------------------|-----------------| 
G|-----------------|---------4/5-----|------------------|-----------------| 
D|-2-----3---------|---------4/5---3-|(3)-2-------------|-----------------| 
A|-2-----3---------|---------2/3---3-|(3)-2-------------|-----------------| 
E|-0-0-0-1-0-0-0-0-|-0-0-0-0-----0-1-|(1)-0-0-0-0-0-0-0-|-0-0-0-0-0-0-0-0-|
     . .   . . . .   . . . .     .          . . . . . .   . . . . . . . .  
[ Tab from: http://www.guitartabs.cc/tabs/k/kreator/people_of_the_lie_tab.html ]
e|-----------------|-----------------|------------------|-----------------| 
B|-----------------|-----------------|------------------|-----------------| 
G|-----------------|---------4/5-----|------------------|-----------------| 
D|-2-----3---------|---------4/5---3-|(3)-2-------------|-----------------| 
A|-2-----3---------|---------2/3---3-|(3)-2-------------|-----------------| 
E|-0-0-0-1-0-0-0-0-|-0-0-0-0-----0-1-|(1)-0-0-0-0-0-0-0-|-1-1-1-1-1-1-1-1-|
     . .   . . . .   . . . .     .          . . . . . .   . . . . . . . .  



Verse Riff (last time play 4th bar with palm-muted F as above):
e|-----------------|-----------------|------------------|-----------------| 
B|-----------------|-----------------|------------------|-----------------| 
G|-----------------|---------4/5-----|------------------|-----------------| 
D|-2-----3---------|---------4/5---3-|(3)-2-------------|-----------------| 
A|-2-----3---------|---------2/3---3-|(3)-2-------------|-----------------| 
E|-0-0-0-1-0-0-0-0-|-0-0-0-0-----0-1-|(1)-0-0-0-0-0-0-0-|-0-0-0-0-0-0-0-0-|
     . .   . . . .   . . . .     .          . . . . . .   . . . . . . . .  



Chorus:
e|-----------------|-----------------|-----------------|-----------------|
b|-----------------|-----------------|-----------------|-----------------| 
g|-----------------|-----------------|-4---------------|-----------------| 
d|-2---------------|-5---------------|-4---------------|-4-------3-------|
a|-2---------------|-5---------------|-2---------------|-4-------3-------|
E|-0---------------|-3---------------|-----------------|-2-------1-------|

Before the drum solo :
e|---------------------------------|---------------------------------|
B|---------------------------------|---------------------------------| 
G|---------------------------------|---------------------------------| 
D|-4-------------------------------|---7-----------------------------|
A|-4-------------------------------|---7-----------------------------|
E|-2-------2-2-2-2-2-2-2-2-2-2-2-2-|-2-5-----5-5-5-5-5-5-5-5-5-5-5-5-|
           . . . . . . . . . . . .   .       . . . . . . . . . . . .

e|---------------------------------|---------------------------------|
B|---------------------------------|---------------------------------| 
G|---------------------------------|---------------------------------| 
D|-7---6---------------------------|---9-----------------------------|
A|-7---6---------------------------|---9-----------------------------|
E|-5---4---4-4-4-4-4-4-4-4-4-4-4-4-|-4-7-----------------------------|
           . . . . . . . . . . . .   .

Drum solo


Rhythm guitar for 1st solo:
e|-----------------|-----------------|------------------|-----------------|
B|-----------------|-----------------|------------------|-----------------| 
G|-----------------|-----------------|------------------|-----------------| 
D|-5-----6---------|---------8-7-----|------------------|-----------------|
A|-5-----6---------|---------6-5-5-6-|(6)-5-------------|-----------------|
E|-3-3-3-4-3-3-3-3-|-3-3-3-3-----3-4-|(4)-3-3-3-3-3-3-3-|-3-3-3-3-3-3-3-3-|
     . .   . . . .   . . . .     .          . . . . . .   . . . . . . . .

e|-----------------|-----------------|------------------|-----------------| 
B|-----------------|-----------------|------------------|-----------------| 
G|-----------------|--------12/11----|------------------|-----------------| 
D|-9----10---------|--------12/11----|(10)--------------|-----------------| 
A|-9----10---------|--------10/9-9-10|(10)9-------------|-----------------| 
E|-7-7-7-8-7-7-7-7-|-7-7-7-7-----7-8-|(8)-7-7-7-7-7-7-7-|-7-7-7-7-7-7-7-7-|
     . .   . . . .   . . . .     .          . . . . . .   . . . . . . . .  

e|-----------------|-----------------|------------------|-----------------| 
B|-----------------|-----------------|------------------|-----------------| 
G|-----------------|--------10/9-----|------------------|-----------------| 
D|-7-----8---------|---------8/7-7-8-|(8)-7-------------|-----------------| 
A|-5-5-5-6-5-5-5-5-|-5-5-5-5-----5-6-|(6)-5-5-5-5-5-5-5-|-5-5-5-5-5-5-5-5-| 
E|-----------------|-----------------|------------------|-----------------|
     . .   . . . .   . . . .     .          . . . . . .   . . . . . . . .  



2nd solo (oh yeah-f*ck Hulk):
e|-----------------------------------------|-----------------------------------|
B|-----------------------------------------|-----------------------------------|
G|-14---12---------------------------------|-----------------------------------|
D|-----------16---13---12---13---12--------|---------------------13---12-------|
A|------------------------------------15---|-13---12---13---15-----------------|
E|-----------------------------------------|-----------------------------------|

e|-------------------------------------------------|
B|-------------------------------------------------|
G|-------------------------------------------------|
D|-9--9--9--9--10-10-10-10-12-12-12-12-10-10-10-10-|
A|-------------------------------------------------|
E|-------------------------------------------------|

e|-------------------------------------------------|
B|-------------------------------------------------|
G|-------------------------------------------------|
D|-12-12-12-12-13-13-13-13-15-15-15-15-17-17-17-17-|
A|-------------------------------------------------|
E|-------------------------------------------------|

e|-------------------------------------------------|
B|-------------------------------------------------|
G|-14-14-14-14-15-15-15-15-17-17-17-17-19-19-19-19-|
D|-------------------------------------------------|
A|-------------------------------------------------|
E|-------------------------------------------------|


e|-------------------------------------------------|
B|-------------------------------------------------|
G|-20-/-/-/-/-/-/-/-/-/-/--------------------------|
D|-------------------------------------------------|
A|-------------------------------------------------|
E|-------------------------------------------------|


Bridge:
e|------------------------|--------------------------|
B|------------------------|--------------------------|
G|------------------------|-----------------------11-|
D|------9--10--12--10-----|-9--10--12--10--10--9--9--|
A|------7--8---10--8------|-7--8---10--8---8---7-----|
E|-0-0----------------0-0-|--------------------------|
   . .                . .



e|------------------------|--------------------------|
B|------------------------|--------------------------|
G|------------------------|--------------------------|
D|------9--10--12--10-----|-9--10--12--10--10--9\----|
A|------7--8---10--8------|-7--8---10--8---8---7\----|
E|-0-0----------------0-0-|--------------------------|
   . .                . .

Play Verse Riff again (ending with palm-muted F), Chorus Riff and end the song with an improvized outro...

The End.



T H R A S H   N   B L A D E S
http://slayer.multimania.com
Comments