Kravitz Lenny - Where Are We Running Chords & Tabs

 

Where Are We Running Chords & Tabs

Kravitz Lenny Chords & Tabs

Version: 1 Type: Tab 0 ratings
1 star 2 stars 3 stars 4 stars 5 stars
comments

Where Are We Running Tab

   
=-=-=-=-=-=-=-=-=-=-=-=-=-=-=-=-=-=-=-=-=-=-=-=-=-=-=-=-=-=-
Lenny Kravitz
Where Are We Running
Baptism
=-=-=-=-=-=-=-=-=-=-=-=-=-=-=-=-=-=-=-=-=-=-=-=-=-=-=-=-=-=-

By: Darren 316

Info: Correct Version, Exact Order/Timing
Listen to song to get perfect.

=-=-=-=-=-=-=-=-=-=-=-=-=-=-=-=-=-=-=-=-=-=-=-=-=-=-=-=-=-=-

Index:

V=Viborato
B=Bend

=-=-=-=-=-=-=-=-=-=-=-=-=-=-=-=-=-=-=-=-=-=-=-=-=-=-=-=-=-=-

Drums Play

=-=-=-=-=-=-=-=-=-=-=-=-=-=-=-=-=-=-=-=-=-=-=-=-=-=-=-=-=-=-

Riff 1 x4
--------------------------------------------------------------------------
--------------------------------------------------------------------------
-------------------------------------------------------------------------- 
----------------7-7-7-7-9-9----------------------------------------------
----------------5-5-5-5-7-7-9-9-11-9-9-9-11-9--------------------------
-----------------------------7-7--7-7-7-7--7-7---------------------------

Riff 2 x2(fast)
--------------------------------------------------------------------------
--------------------------------------------------------------------------
--------------------------------------------------------------------------
---------------------------------------7-7--------------9-9-11-9-9-11-9-
--9-9-9-----------9-9-9-9-------------5-5---7-7--------7-7--9-7-7--9-7-
--7-7-7-----------7-7-7-7--------------------5-5------------------------

Riff 3 
-------------------------------------------------------------------------
--------------------------------------------------------------------------
--------------------------------------------------------------------------
--------------------------------------------------------------------------
--------------------------------------------------------------------------
---3-3-3-3-3-3-3-3-3—5--5-5-5-5-5-5-5---------------------------------

=-=-=-=-=-=-=-=-=-=-=-=-=-=-=-=-=-=-=-=-=-=-=-=-=-=-=-=-=-=-

Riff 1 x4
--------------------------------------------------------------------------
--------------------------------------------------------------------------
-------------------------------------------------------------------------- 
----------------7-7-7-7-9-9----------------------------------------------
----------------5-5-5-5-7-7-9-9-11-9-9-9-11-9--------------------------
-----------------------------7-7--7-7-7-7--7-7---------------------------

Riff 2 x2(fast)
--------------------------------------------------------------------------
--------------------------------------------------------------------------
--------------------------------------------------------------------------
---------------------------------------7-7--------------9-9-11-9-9-11-9-
--9-9-9-----------9-9-9-9-------------5-5---7-7--------7-7--9-7-7--9-7-
--7-7-7-----------7-7-7-7--------------------5-5------------------------

Riff 3 
-------------------------------------------------------------------------
--------------------------------------------------------------------------
--------------------------------------------------------------------------
--------------------------------------------------------------------------
--------------------------------------------------------------------------
---3-3-3-3-3-3-3-3-3—5--5-5-5-5-5-5-5---------------------------------
[ Tab from: http://www.guitartabs.cc/tabs/k/kravitz_lenny/where_are_we_running_tab.html ]
=-=-=-=-=-=-=-=-=-=-=-=-=-=-=-=-=-=-=-=-=-=-=-=-=-=-=-=-=-=-

Riff 1 x4
--------------------------------------------------------------------------
--------------------------------------------------------------------------
-------------------------------------------------------------------------- 
----------------7-7-7-7-9-9----------------------------------------------
----------------5-5-5-5-7-7-9-9-11-9-9-9-11-9--------------------------
-----------------------------7-7--7-7-7-7--7-7---------------------------

Riff 3 
-------------------------------------------------------------------------
--------------------------------------------------------------------------
--------------------------------------------------------------------------
--------------------------------------------------------------------------
--------------------------------------------------------------------------
---3-3-3-3-3-3-3-3-3—5--5-5-5-5-5-5-5---------------------------------

=-=-=-=-=-=-=-=-=-=-=-=-=-=-=-=-=-=-=-=-=-=-=-=-=-=-=-=-=-=-

Solo(Play Riff 1 Well playing solo)
------------------------------------------------------------------------
------------------------------------------------------------------------
-----7-9-9b11---11-9-7-9-7-9-7vv-----------7-9b11-----------------------
--s9------------------------------9-9----7-9---------------------------
------------------------------------------------------------------------
------------------------------------------------------------------------

----------------------------------------------------------------10-12v
--------------------10-12-12b14---14-12-10-12-10-12-12----12---------
-------7--------------------------------------------------------------
-9-9------------------------------------------------------------------
----------------------------------------------------------------------
---------------------------------------------------------------------- 

=-=-=-=-=-=-=-=-=-=-=-=-=-=-=-=-=-=-=-=-=-=-=-=-=-=-=-=-=-=-

Riff 1 x4
--------------------------------------------------------------------------
--------------------------------------------------------------------------
-------------------------------------------------------------------------- 
----------------7-7-7-7-9-9----------------------------------------------
----------------5-5-5-5-7-7-9-9-11-9-9-9-11-9--------------------------
-----------------------------7-7--7-7-7-7--7-7---------------------------

Riff 2 x2(fast)
--------------------------------------------------------------------------
--------------------------------------------------------------------------
--------------------------------------------------------------------------
---------------------------------------7-7--------------9-9-11-9-9-11-9-
--9-9-9-----------9-9-9-9-------------5-5---7-7--------7-7--9-7-7--9-7-
--7-7-7-----------7-7-7-7--------------------5-5------------------------

Riff 3 
-------------------------------------------------------------------------
--------------------------------------------------------------------------
--------------------------------------------------------------------------
--------------------------------------------------------------------------
--------------------------------------------------------------------------
---3-3-3-3-3-3-3-3-3—5--5-5-5-5-5-5-5---------------------------------
Comments