Kravitz Lenny - Where Are We Runnin`? Chords & Tabs

 

Where Are We Runnin`? Chords & Tabs

Kravitz Lenny Chords & Tabs

Version: 2 Type: Tab 0 ratings
1 star 2 stars 3 stars 4 stars 5 stars
comments

Where Are We Runnin`? Tab

#----------------------------------PLEASE NOTE---------------------------------#
#This file is the author's own work and represents their interpretation of the #
#song. You may only use this file for private study, scholarship, or research. #
#------------------------------------------------------------------------------#

Where are we runnin`? - Lenny Kravitz

Andreas Puschmann, 06.04.2004


--------------------------------------------------------------------------
--------------------------------------------------------------------------
-------------------------------------------------------------------------- 
----------------7-7-7-7s9-9-----------------------------------------------
----------------5-5-5-5s7-7-9-9-11-9-9-9-11-9-----------------------------
-----------------------------7-7--7-7-7-7--7-7----------------------------


---------------------------------------------------------------------------
---------------------------------------------------------------------------
--------------------------------------------------------------------------- 
----------------7-7-7-7s9-9------------------------------------------------
----------------5-5-5-5s7-7-9-9-11-9-9-9-11-9------------------------------
-----------------------------7-7--7-7-7-7--7-7-----------------------------


--------------------------------------------------------------------------
--------------------------------------------------------------------------
-------------------------------------------------------------------------- 
----------------7-7-7-7s9-9-----------------------------------------------
----------------5-5-5-5s7-7-9-9-11-9-9-9-11-9-----------------------------
-----------------------------7-7--7-7-7-7--7-7----------------------------



--------------------------------------------------------------------------
--------------------------------------------------------------------------
-------------------------------------------------------------------------- 
----------------7-7-7-7s9-9-----------------------------------------------
----------------5-5-5-5s7-7-9-9-11-9-9-9-11-9-----------------------------
-----------------------------7-7--7-7-7-7--7-7----------------------------

[ Tab from: http://www.guitartabs.cc/tabs/k/kravitz_lenny/where_are_we_runnin_tab_ver_2.html ]
--------------------------------------------------------------------------
--------------------------------------------------------------------------
--------------------------------------------------------------------------
---------------------------------------7-7--------------9-9s11-9-9s11-9---
--9-9-9-----------9-9-9-9-------------5-5---7-7--------7-7s-9-7-7s-9-7----
--7-7-7-----------7-7-7-7--------------------5-5--------------------------


--------------------------------------------------------------------------
--------------------------------------------------------------------------
--------------------------------------------------------------------------
---------------------------------------7-7--------------9-9s11-9-9s11-9---
--9-9-9-----------9-9-9-9-------------5-5---7-7--------7-7s-9-7-7s-9-7----
--7-7-7-----------7-7-7-7--------------------5-5---------------------------


-------------------------------------------------------------------------
--------------------------------------------------------------------------
--------------------------------------------------------------------------
--------------------------------------------------------------------------
--------------------------------------------------------------------------
---3-3-3-3-3-3-3-3-3—5--5-5-5-5-5-5-5-------------------------------------

Solo
------------------------------------------------------------------------
------------------------------------------------------------------------
-----7-9-9b11---11r9-7-9-7-9-7vv-----------7-9b11artificial harm-(7)----
--s9------------------------------9-9----7-9----------------------------
------------------------------------------------------------------------
------------------------------------------------------------------------

----------------------------------------------------------------10-12-
--------------------10-12-12b14---14r12-10-12-10-12-12----12----------
-------7--------------------------------------------------------------
-9-9------------------------------------------------------------------
----------------------------------------------------------------------
---------------------------------------------------------------------- 
Comments