Kravitz Lenny - Where Are We Runnin`? Chords & Tabs

 

Where Are We Runnin`? Chords & Tabs

Kravitz Lenny Chords & Tabs

Version: 1 Type: Tab 1 rating
1 star 2 stars 3 stars 4 stars 5 stars
comments

Where Are We Runnin`? Tab

Intro
|-----------------------------|
|-----------------------------|
|-7-7-7--9-9------------------|   4x
|-7-7-7--9-9--4---4-6-4-4-6-4-|
|-5-5-5--7-7--2-9-2-2-2-2-2-2-|
|---------------7-------------|

Verse

|-------------------------------|
|-------------------------------|
|-------------------------------|   2x
|-4-4---4-4-4---7-7-----7---7---|
|-2-2---2-2-2---5-5-7-7-5-7-5-7-|
|-------------------5-5---5---5-|

Prechorus

|---------------------------------|
|---------------------------------|
|---------------------------------|
|-5-5-5-5-5-5-5-5-7-7-7-7-7-7-7-7-|
|-x-x-x-x-x-x-x-x-x-x-x-x-x-x-x-x-|
|-3-3-3-3-3-3-3-3-3-3-3-3-3-3-3-3-|

Chorus

|-----------------------------|
|-----------------------------|
|-7-7-7--9-9------------------|   4x
|-7-7-7--9-9--4-4-6-4-4-4-6-4-|
|-5-5-5--7-7--2-2-2-2-2-2-2-2-|
|-----------------------------|

Verse: 2x
Prechorus: 1x
Chorus: 4x
Prechorus: 1x
[ Tab from: http://www.guitartabs.cc/tabs/k/kravitz_lenny/where_are_we_runnin_tab.html ]
Solo

|--------------------------------------------------------|
|--------------------------------------------------------|
|----7-9-9b11---11r9-7-9-7-9-7b9----------7-7b9-7-----7b-|
|-/9-------------------------7---9----7-9---------9-9----|
|--------------------------------------------------------|
|--------------------------------------------------------|

|-------------------------------------------10-12|
|-10-12-12b14---14r12-10-12-10-12-12br-12--------|
|------------------------------------------------|
|------------------------------------------------|
|------------------------------------------------|
|------------------------------------------------|

|-10p9-------------------------------------|
|------12p10-9p7---------------------------|
|----------------9p7-----------------------|
|--------------------11p9p7------9--9brvvv-|
|---------------------------9p7------------|
|------------------------------------------|
Comments