Kravitz Lenny - Straight Cold Player Chords & Tabs

 

Straight Cold Player Chords & Tabs

Kravitz Lenny Chords & Tabs

Version: 1 Type: Tab 0 ratings
1 star 2 stars 3 stars 4 stars 5 stars
comments

Straight Cold Player Tab

STRAIGHT COLD PLAYER
Lenny Kravitz

from the album “5” (1998)


transcribed by Steve Garner (s_garner@hotmail.com)



This riff just repeats over and over for pretty much the entire song:
[ Tab from: http://www.guitartabs.cc/tabs/k/kravitz_lenny/straight_cold_player_tab.html ]
|---------------------------------------|
|--------------------------------X------|
|--------------------------------X------|
|--------------------------------X------|
|------0--0---------3---3---5-----------|
|---3----------3p0----------------------|



The only time it differs is at the key change (around the 2:47 mark)
It’s basically the same riff, except moved up one fret:

|---------------------------------------|
|--------------------------------X------|
|--------------------------------X------|
|--------------------------------X------|
|------1---1--------4---4---6-----------|
|---4----------4p1----------------------|



That’s it!
Comments