Kravitz Lenny - Stillness Of Heart Chords & Tabs

 

Stillness Of Heart Chords & Tabs

Kravitz Lenny Chords & Tabs

Version: 3 Type: Tab 0 ratings
1 star 2 stars 3 stars 4 stars 5 stars
comments

Stillness Of Heart Tab

   
#----------------------------------PLEASE NOTE---------------------------------#
#This file is the author's own work and represents their interpretation of the #
#song. You may only use this file for private study, scholarship, or research. #
#------------------------------------------------------------------------------#

Kravitz Lenny, Stillness of heart

Hey Y’all!
I just took a version that was already here and corrected some mistakes.
The little riff in the beginning goes as follows:

E|------------------------------
h|------------------------------
g|--5—5~--3---------------------
D|-----------5---3/5------------
A|------------------------------
E|------------------------------

Verse chords, clean:


      Gm                          F                              Eb
E|----3---------------------------1------------------------------6------
B|----3---------------------------1------------------------------8------
G|----3---------------------------2------------------------------8------
D|----5---------------------------3------------------------------8------
A|----5---------------------------3------------------------------6------
E|----3---------------------------1------------------------------6------
            



Chorus Chords, distortion and a little reverb:

       Bb                F                  Cm                   Eb
E|-----1-----------------1------------------3--------------------6------
B|-----3-----------------1------------------4--------------------8------
G|-----3-----------------2------------------5--------------------8------
D|-----3-----------------3------------------5--------------------8------
A|-----1-----------------3------------------3--------------------6------
E|-----1-----------------1------------------3--------------------6------


Lenny Kravitz - Stillness of Heart

From the album "Lenny"

Tabbed by Ofir Peretz


Solo

(first part starts right after "anyone ?")

|-----------------------------------------|
|-6h8vvv\--6-8----------------------------|
|--------------7-5--------5h7p5-----------|
|------------------8-5--8-------8p5-5vvv/-|
|-----------------------------------------|
|-----------------------------------------|


|-----------10p8----------------/10---13---10--10---------------|
|-8h10-11-8------11-------------------------------13p11---------|
|-------------------11vvv-------------------------------10vvv---|
|---------------------------------------------------------------|
|---------------------------------------------------------------|
|---------------------------------------------------------------|

[ Tab from: http://www.guitartabs.cc/tabs/k/kravitz_lenny/stillness_of_heart_tab_ver_3.html ]
|-----6---------------/10p8---------8-10-10-/13-13-15-15-17-17-18-18--/22------|
|-6h8---8-10/13\11-8--------11-8-11--------------------------------------------|
|------------------------------------------------------------------------------|
|------------------------------------------------------------------------------|
|------------------------------------------------------------------------------|
|------------------------------------------------------------------------------|



Kravitz Lenny, Stillness of heart

Tabbing by Dannie Jensen, Noxin@dr.com


Had just a few problems with the very first chord, but I think I nailed
it to being somewhere between G and C...you decide that one, either can be used,
but i prefer the C. Play this one LOUD!!


Verse chords, clean:


      G / C                       F                              Eb
E|----3---3-----------------------1------------------------------6------
B|----3---5-----------------------1------------------------------8------
G|----4---5-----------------------2------------------------------8------
D|----5---5-----------------------3------------------------------8------
A|----5---3-----------------------3------------------------------6------
E|----3---3-----------------------1------------------------------6------


Chorus Chords, distortion and a little reverb:

       Bb                F                  C                    Eb
E|-----1-----------------1------------------3--------------------6------
B|-----3-----------------1------------------5--------------------8------
G|-----3-----------------2------------------5--------------------8------
D|-----3-----------------3------------------5--------------------8------
A|-----1-----------------3------------------3--------------------6------
E|-----1-----------------1------------------3--------------------6------
            

Someone else please post the lick and the sweet little solo-thingy
and feel to to correct, bitch or hand out props at Noxin@dr.com 

"If you mean it, people will like it." 
              Noxin


Lenny Kravitz - Stillness of heart


Intro:


e:-----------------------
B:--/13-13~-11-----------
G:------------12-12~-----


Solo 2:45 (chords as verse) (C/G, G/C x3)

e:------------------------------------------------------------------------------
B:--------------------------------------------------11----------11--------------
G:10/12---/12-10-------------------------------10/12--12-13b(15)--12-11~--------
D:-----10-------12-10-----10-12-10-13-10-10~/-----------------------------------
A:-------------------13-10------------------------------------------------------

                                  
e:--------13---------------------------
B:-13b(15)--b(15)13-13w(15)-11---------
G:----------------------------12-10~---
D:-------------------------------------
                                
e:--------------------------------------13/15-15/17-17/18-18/20-20/22-20-20b(22)-20b(22)-
B:-----11--13b(15)-11--b(15)13-11--13/15-------------------------------------------------
G:10/12--12----------12----------12------------------------------------------------------
D:---------------------------------------------------------------------------------------
Comments